  0
SECTION
  2
HEADER
  9
$ACADVER
  1
AC1015
  9
$ACADMAINTVER
 70
     6
  9
$DWGCODEPAGE
  3
ANSI_1252
  9
$INSBASE
 10
0.0
 20
0.0
 30
0.0
  9
$EXTMIN
 10
0.0
 20
0.0
 30
0.0
  9
$EXTMAX
 10
2500.0
 20
2000.0
 30
0.0
  9
$LIMMIN
 10
0.0
 20
0.0
  9
$LIMMAX
 10
2500.0
 20
2000.0
  9
$ORTHOMODE
 70
     0
  9
$REGENMODE
 70
     1
  9
$FILLMODE
 70
     1
  9
$QTEXTMODE
 70
     0
  9
$MIRRTEXT
 70
     1
  9
$LTSCALE
 40
1.0
  9
$ATTMODE
 70
     1
  9
$TEXTSIZE
 40
3.5
  9
$TRACEWID
 40
1.0
  9
$TEXTSTYLE
  7
Standard
  9
$CLAYER
  8
0
  9
$CELTYPE
  6
ByLayer
  9
$CECOLOR
 62
   256
  9
$CELTSCALE
 40
1.0
  9
$DISPSILH
 70
     0
  9
$DIMSCALE
 40
1.0
  9
$DIMASZ
 40
3.302
  9
$DIMEXO
 40
1.0
  9
$DIMDLI
 40
3.75
  9
$DIMRND
 40
0.0
  9
$DIMDLE
 40
0.0
  9
$DIMEXE
 40
1.0
  9
$DIMTP
 40
0.0
  9
$DIMTM
 40
0.0
  9
$DIMTXT
 40
3.5
  9
$DIMCEN
 40
2.5
  9
$DIMTSZ
 40
0.0
  9
$DIMTOL
 70
     0
  9
$DIMLIM
 70
     0
  9
$DIMTIH
 70
     1
  9
$DIMTOH
 70
     1
  9
$DIMSE1
 70
     0
  9
$DIMSE2
 70
     0
  9
$DIMTAD
 70
     1
  9
$DIMZIN
 70
     0
  9
$DIMBLK
  1

  9
$DIMASO
 70
     1
  9
$DIMSHO
 70
     1
  9
$DIMPOST
  1

  9
$DIMAPOST
  1

  9
$DIMALT
 70
     0
  9
$DIMALTD
 70
     3
  9
$DIMALTF
 40
0.0393700787
  9
$DIMLFAC
 40
2.0
  9
$DIMTOFL
 70
     1
  9
$DIMTVP
 40
0.0
  9
$DIMTIX
 70
     0
  9
$DIMSOXD
 70
     0
  9
$DIMSAH
 70
     0
  9
$DIMBLK1
  1

  9
$DIMBLK2
  1

  9
$DIMSTYLE
  2
ISO-25
  9
$DIMCLRD
 70
     0
  9
$DIMCLRE
 70
     0
  9
$DIMCLRT
 70
     0
  9
$DIMTFAC
 40
1.0
  9
$DIMGAP
 40
1.524
  9
$DIMJUST
 70
     0
  9
$DIMSD1
 70
     0
  9
$DIMSD2
 70
     0
  9
$DIMTOLJ
 70
     0
  9
$DIMTZIN
 70
     0
  9
$DIMALTZ
 70
     0
  9
$DIMALTTZ
 70
     0
  9
$DIMUPT
 70
     0
  9
$DIMDEC
 70
     2
  9
$DIMTDEC
 70
     2
  9
$DIMALTU
 70
     2
  9
$DIMALTTD
 70
     3
  9
$DIMTXSTY
  7
Standard
  9
$DIMAUNIT
 70
     0
  9
$DIMADEC
 70
     2
  9
$DIMALTRND
 40
0.0
  9
$DIMAZIN
 70
     0
  9
$DIMDSEP
 70
    44
  9
$DIMATFIT
 70
     3
  9
$DIMFRAC
 70
     0
  9
$DIMLDRBLK
  1

  9
$DIMLUNIT
 70
     2
  9
$DIMLWD
 70
    -2
  9
$DIMLWE
 70
    -2
  9
$DIMTMOVE
 70
     0
  9
$LUNITS
 70
     2
  9
$LUPREC
 70
     2
  9
$SKETCHINC
 40
1.0
  9
$FILLETRAD
 40
10.0
  9
$AUNITS
 70
     0
  9
$AUPREC
 70
     2
  9
$MENU
  1
.
  9
$ELEVATION
 40
0.0
  9
$PELEVATION
 40
0.0
  9
$THICKNESS
 40
0.0
  9
$LIMCHECK
 70
     0
  9
$CHAMFERA
 40
0.0
  9
$CHAMFERB
 40
0.0
  9
$CHAMFERC
 40
0.0
  9
$CHAMFERD
 40
0.0
  9
$SKPOLY
 70
     0
  9
$TDCREATE
 40
2457077.614502917
  9
$TDUCREATE
 40
2457077.614502917
  9
$TDUPDATE
 40
2457077.614503414
  9
$TDUUPDATE
 40
2457077.614503414
  9
$TDINDWG
 40
0.0000000116
  9
$TDUSRTIMER
 40
0.0000000116
  9
$USRTIMER
 70
     1
  9
$ANGBASE
 50
0.0
  9
$ANGDIR
 70
     0
  9
$PDMODE
 70
     0
  9
$PDSIZE
 40
-1.0
  9
$PLINEWID
 40
0.0
  9
$SPLFRAME
 70
     0
  9
$SPLINETYPE
 70
     6
  9
$SPLINESEGS
 70
     8
  9
$HANDSEED
  5
3A6
  9
$SURFTAB1
 70
     6
  9
$SURFTAB2
 70
     6
  9
$SURFTYPE
 70
     6
  9
$SURFU
 70
     6
  9
$SURFV
 70
     6
  9
$UCSBASE
  2

  9
$UCSNAME
  2

  9
$UCSORG
 10
0.0
 20
0.0
 30
0.0
  9
$UCSXDIR
 10
1.0
 20
0.0
 30
0.0
  9
$UCSYDIR
 10
0.0
 20
1.0
 30
0.0
  9
$UCSORTHOREF
  2

  9
$UCSORTHOVIEW
 70
     0
  9
$UCSORGTOP
 10
0.0
 20
0.0
 30
0.0
  9
$UCSORGBOTTOM
 10
0.0
 20
0.0
 30
0.0
  9
$UCSORGLEFT
 10
0.0
 20
0.0
 30
0.0
  9
$UCSORGRIGHT
 10
0.0
 20
0.0
 30
0.0
  9
$UCSORGFRONT
 10
0.0
 20
0.0
 30
0.0
  9
$UCSORGBACK
 10
0.0
 20
0.0
 30
0.0
  9
$PUCSBASE
  2

  9
$PUCSNAME
  2

  9
$PUCSORG
 10
0.0
 20
0.0
 30
0.0
  9
$PUCSXDIR
 10
1.0
 20
0.0
 30
0.0
  9
$PUCSYDIR
 10
0.0
 20
1.0
 30
0.0
  9
$PUCSORTHOREF
  2

  9
$PUCSORTHOVIEW
 70
     0
  9
$PUCSORGTOP
 10
0.0
 20
0.0
 30
0.0
  9
$PUCSORGBOTTOM
 10
0.0
 20
0.0
 30
0.0
  9
$PUCSORGLEFT
 10
0.0
 20
0.0
 30
0.0
  9
$PUCSORGRIGHT
 10
0.0
 20
0.0
 30
0.0
  9
$PUCSORGFRONT
 10
0.0
 20
0.0
 30
0.0
  9
$PUCSORGBACK
 10
0.0
 20
0.0
 30
0.0
  9
$USERI1
 70
     0
  9
$USERI2
 70
     0
  9
$USERI3
 70
     0
  9
$USERI4
 70
     0
  9
$USERI5
 70
     0
  9
$USERR1
 40
0.0
  9
$USERR2
 40
0.0
  9
$USERR3
 40
0.0
  9
$USERR4
 40
0.0
  9
$USERR5
 40
0.0
  9
$WORLDVIEW
 70
     1
  9
$SHADEDGE
 70
     3
  9
$SHADEDIF
 70
    70
  9
$TILEMODE
 70
     1
  9
$MAXACTVP
 70
    64
  9
$PINSBASE
 10
0.0
 20
0.0
 30
0.0
  9
$PLIMCHECK
 70
     0
  9
$PEXTMIN
 10
1.0000000000E+20
 20
1.0000000000E+20
 30
1.0000000000E+20
  9
$PEXTMAX
 10
-1.0000000000E+20
 20
-1.0000000000E+20
 30
-1.0000000000E+20
  9
$PLIMMIN
 10
0.0
 20
0.0
  9
$PLIMMAX
 10
420.0
 20
297.0
  9
$UNITMODE
 70
     0
  9
$VISRETAIN
 70
     1
  9
$PLINEGEN
 70
     0
  9
$PSLTSCALE
 70
     1
  9
$TREEDEPTH
 70
  3020
  9
$CMLSTYLE
  2
Standard
  9
$CMLJUST
 70
     0
  9
$CMLSCALE
 40
20.0
  9
$PROXYGRAPHICS
 70
     1
  9
$MEASUREMENT
 70
     1
  9
$CELWEIGHT
370
    -1
  9
$ENDCAPS
280
     0
  9
$JOINSTYLE
280
     0
  9
$LWDISPLAY
290
     1
  9
$INSUNITS
 70
     4
  9
$HYPERLINKBASE
  1

  9
$STYLESHEET
  1

  9
$XEDIT
290
     1
  9
$CEPSNTYPE
380
     0
  9
$PSTYLEMODE
290
     1
  9
$FINGERPRINTGUID
  2
{E7949AD2-7299-47A9-A93D-7ABA3D4A1975}
  9
$VERSIONGUID
  2
{FAEB1C32-E019-11D5-929B-00C0DF256EC4}
  9
$EXTNAMES
290
     1
  9
$PSVPSCALE
 40
0.0
  9
$OLESTARTUP
290
     0
  0
ENDSEC
  0
SECTION
  2
CLASSES
  0
CLASS
  1
ACDBDICTIONARYWDFLT
  2
AcDbDictionaryWithDefault
  3
ObjectDBX Classes
 90
        0
280
     0
281
     0
  0
CLASS
  1
VISUALSTYLE
  2
AcDbVisualStyle
  3
ObjectDBX Classes
 90
     4095
280
     0
281
     0
  0
CLASS
  1
MATERIAL
  2
AcDbMaterial
  3
ObjectDBX Classes
 90
     1153
280
     0
281
     0
  0
CLASS
  1
SCALE
  2
AcDbScale
  3
ObjectDBX Classes
 90
     1153
280
     0
281
     0
  0
CLASS
  1
SUN
  2
AcDbSun
  3
SCENEOE
 90
     1153
280
     0
281
     0
  0
CLASS
  1
ACDBPLACEHOLDER
  2
AcDbPlaceHolder
  3
ObjectDBX Classes
 90
        0
280
     0
281
     0
  0
CLASS
  1
LAYOUT
  2
AcDbLayout
  3
ObjectDBX Classes
 90
        0
280
     0
281
     0
  0
ENDSEC
  0
SECTION
  2
TABLES
  0
TABLE
  2
VPORT
  5
8
330
0
100
AcDbSymbolTable
 70
     1
  0
VPORT
  5
29
330
8
100
AcDbSymbolTableRecord
100
AcDbViewportTableRecord
  2
*Active
 70
     0
 10
0.0
 20
0.0
 11
1.0
 21
1.0
 12
1250.0
 22
1000.0
 13
0.0
 23
0.0
 14
10.0
 24
10.0
 15
10.0
 25
10.0
 16
0.0
 26
0.0
 36
1.0
 17
0.0
 27
0.0
 37
0.0
 40
2000.0
 41
1.25
 42
50.0
 43
0.0
 44
0.0
 50
0.0
 51
0.0
 71
     0
 72
  2000
 73
     1
 74
     3
 75
     0
 76
     0
 77
     0
 78
     0
281
     0
 65
     1
110
0.0
120
0.0
130
0.0
111
1.0
121
0.0
131
0.0
112
0.0
122
1.0
132
0.0
 79
     0
146
0.0
  0
ENDTAB
  0
TABLE
  2
LTYPE
  5
5
330
0
100
AcDbSymbolTable
 70
     6
  0
LTYPE
  5
14
330
5
100
AcDbSymbolTableRecord
100
AcDbLinetypeTableRecord
  2
ByBlock
 70
     0
  3

 72
    65
 73
     0
 40
0.0
  0
LTYPE
  5
15
330
5
100
AcDbSymbolTableRecord
100
AcDbLinetypeTableRecord
  2
ByLayer
 70
     0
  3

 72
    65
 73
     0
 40
0.0
  0
LTYPE
  5
16
330
5
100
AcDbSymbolTableRecord
100
AcDbLinetypeTableRecord
  2
Continuous
 70
     0
  3
Solid line
 72
    65
 73
     0
 40
0.0
  0
LTYPE
  5
6A
330
5
100
AcDbSymbolTableRecord
100
AcDbLinetypeTableRecord
  2
HIDDEN
 70
     0
  3
Hidden __ __ __ __ __ __ __ __ __ __ __ __ __ __
 72
    65
 73
     2
 40
1.905
 49
1.27
 74
     0
 49
-0.635
 74
     0
  0
LTYPE
  5
6B
330
5
100
AcDbSymbolTableRecord
100
AcDbLinetypeTableRecord
  2
PHANTOM
 70
     0
  3
Phantom ______  __  __  ______  __  __  ______
 72
    65
 73
     6
 40
12.7
 49
6.35
 74
     0
 49
-1.27
 74
     0
 49
1.27
 74
     0
 49
-1.27
 74
     0
 49
1.27
 74
     0
 49
-1.27
 74
     0
  0
LTYPE
  5
6C
330
5
100
AcDbSymbolTableRecord
100
AcDbLinetypeTableRecord
  2
CENTER
 70
     0
  3
Center ____ _ ____ _ ____ _ ____ _ ____ _ ____
 72
    65
 73
     4
 40
10.16
 49
6.35
 74
     0
 49
-1.27
 74
     0
 49
1.27
 74
     0
 49
-1.27
 74
     0
  0
LTYPE
  5
6D
330
5
100
AcDbSymbolTableRecord
100
AcDbLinetypeTableRecord
  2
CENTERX2
 70
     0
  3
Center (2x) ________  __  ________  __  _____
 72
    65
 73
     4
 40
20.32
 49
12.7
 74
     0
 49
-2.54
 74
     0
 49
2.54
 74
     0
 49
-2.54
 74
     0
  0
LTYPE
  5
6E
330
5
100
AcDbSymbolTableRecord
100
AcDbLinetypeTableRecord
  2
DOT2
 70
     0
  3
Dot (.5x) ........................................
 72
    65
 73
     2
 40
0.635
 49
0.0
 74
     0
 49
-0.635
 74
     0
  0
ENDTAB
  0
TABLE
  2
LAYER
  5
2
330
0
100
AcDbSymbolTable
 70
     1
  0
LAYER
  5
10
330
2
100
AcDbSymbolTableRecord
100
AcDbLayerTableRecord
  2
0
 70
     0
 62
     7
  6
Continuous
370
    -3
390
F
  0
ENDTAB
  0
TABLE
  2
STYLE
  5
3
330
0
100
AcDbSymbolTable
 70
     2
  0
STYLE
  5
11
330
3
100
AcDbSymbolTableRecord
100
AcDbTextStyleTableRecord
  2
Standard
 70
     0
 40
0.0
 41
1.0
 50
0.0
 71
     0
 42
3.5
  3
txt
  4

  0
STYLE
  5
3A4
330
3
100
AcDbSymbolTableRecord
100
AcDbTextStyleTableRecord
  2
SLDTEXTSTYLE0
 70
     0
 40
0.0
 41
0.7
 50
0.0
 71
     0
 42
3.5
  3
TXT
  4

  0
ENDTAB
  0
TABLE
  2
VIEW
  5
6
330
0
100
AcDbSymbolTable
 70
     0
  0
ENDTAB
  0
TABLE
  2
UCS
  5
7
330
0
100
AcDbSymbolTable
 70
     0
  0
ENDTAB
  0
TABLE
  2
APPID
  5
9
330
0
100
AcDbSymbolTable
 70
     1
  0
APPID
  5
12
330
9
100
AcDbSymbolTableRecord
100
AcDbRegAppTableRecord
  2
ACAD
 70
     0
  0
ENDTAB
  0
TABLE
  2
DIMSTYLE
  5
A
330
0
100
AcDbSymbolTable
 70
     1
100
AcDbDimStyleTable
  0
DIMSTYLE
105
27
330
A
100
AcDbSymbolTableRecord
100
AcDbDimStyleTableRecord
  2
ISO-25
 70
     0
 41
2.5
 42
0.625
 43
3.75
 44
1.25
 73
     0
 74
     0
 77
     1
 78
     8
140
2.5
141
2.5
143
0.0393700787
147
0.625
171
     3
172
     1
178
     0
271
     2
272
     2
274
     3
278
    44
283
     0
284
     8
340
11
  0
ENDTAB
  0
TABLE
  2
BLOCK_RECORD
  5
1
330
0
100
AcDbSymbolTable
 70
     1
  0
BLOCK_RECORD
  5
1F
330
1
100
AcDbSymbolTableRecord
100
AcDbBlockTableRecord
  2
*Model_Space
340
22
  0
BLOCK_RECORD
  5
1B
330
1
100
AcDbSymbolTableRecord
100
AcDbBlockTableRecord
  2
*Paper_Space
340
1E
  0
BLOCK_RECORD
  5
23
330
1
100
AcDbSymbolTableRecord
100
AcDbBlockTableRecord
  2
*Paper_Space0
340
26
  0
ENDTAB
  0
ENDSEC
  0
SECTION
  2
BLOCKS
  0
BLOCK
  5
20
330
1F
100
AcDbEntity
  8
0
100
AcDbBlockBegin
  2
*Model_Space
 70
     0
 10
0.0
 20
0.0
 30
0.0
  3
*Model_Space
  1
*Model_Space
  0
ENDBLK
  5
21
330
1F
100
AcDbEntity
  8
0
100
AcDbBlockEnd
  0
BLOCK
  5
1C
330
1B
100
AcDbEntity
 67
     1
  8
0
100
AcDbBlockBegin
  2
*Paper_Space
 70
     0
 10
0.0
 20
0.0
 30
0.0
  3
*Paper_Space
  1
*Paper_Space
  0
ENDBLK
  5
1D
330
1B
100
AcDbEntity
 67
     1
  8
0
100
AcDbBlockEnd
  0
BLOCK
  5
24
330
23
100
AcDbEntity
  8
0
100
AcDbBlockBegin
  2
*Paper_Space0
 70
     0
 10
0.0
 20
0.0
 30
0.0
  3
*Paper_Space0
  1
*Paper_Space0
  0
ENDBLK
  5
25
330
23
100
AcDbEntity
  8
0
100
AcDbBlockEnd
  0
ENDSEC
  0
SECTION
  2
ENTITIES
  0
SPLINE
  5
6F
330
1F
100
AcDbEntity
  8
0
  6
Continuous
 62
     7
370
    15
100
AcDbSpline
210
0.0
220
0.0
230
1.0
 70
     8
 71
     3
 72
    14
 73
    10
 74
     0
 42
0.000000001
 43
0.00000001
 40
0.0
 40
0.0
 40
0.0
 40
0.0
 40
0.1082482216060469
 40
0.2721254072463721
 40
0.4287104986448741
 40
0.5766729044426195
 40
0.7174712127892742
 40
0.8561094594778568
 40
1.0
 40
1.0
 40
1.0
 40
1.0
 10
732.5537724996228
 20
814.3595232748353
 30
0.0
 10
735.2267008391426
 20
813.1419615809692
 30
0.0
 10
741.9461804032445
 20
810.081130955994
 30
0.0
 10
752.8853095195905
 20
806.0936482849776
 30
0.0
 10
765.0487232920533
 20
802.3969559065929
 30
0.0
 10
776.8277814176726
 20
799.6655341529781
 30
0.0
 10
788.2772671611953
 20
797.7994149329766
 30
0.0
 10
799.7167525459538
 20
796.6596520048186
 30
0.0
 10
807.3826210313434
 20
796.5270512254515
 30
0.0
 10
811.2868106568475
 20
796.459518291887
 30
0.0
  0
SPLINE
  5
70
330
1F
100
AcDbEntity
  8
0
  6
Continuous
 62
     7
370
    15
100
AcDbSpline
210
0.0
220
0.0
230
1.0
 70
     8
 71
     3
 72
    15
 73
    11
 74
     0
 42
0.000000001
 43
0.00000001
 40
0.0
 40
0.0
 40
0.0
 40
0.0
 40
0.1367088762793561
 40
0.2614201492524904
 40
0.3793132675806084
 40
0.4937730540962781
 40
0.605099541155164
 40
0.7154909589388936
 40
0.8543090544599319
 40
0.9999999999999999
 40
0.9999999999999999
 40
0.9999999999999999
 40
0.9999999999999999
 10
890.652254095139
 20
796.459518291887
 30
0.0
 10
894.3770134118129
 20
796.5202381560234
 30
0.0
 10
901.4996462868336
 20
796.6363490946628
 30
0.0
 10
911.7974365895077
 20
797.5895435702122
 30
0.0
 10
921.4244514740698
 20
799.005586724689
 30
0.0
 10
930.6025933628551
 20
800.875083214341
 30
0.0
 10
939.4782382640577
 20
803.1457714208501
 30
0.0
 10
948.8680910023539
 20
806.0330241452223
 30
0.0
 10
959.0014641802409
 20
809.6672038964989
 30
0.0
 10
966.1053440478336
 20
812.7704287413675
 30
0.0
 10
969.7430877590795
 20
814.3595232748353
 30
0.0
  0
LINE
  5
71
330
1F
100
AcDbEntity
  8
0
  6
Continuous
 62
     7
370
    15
100
AcDbLine
 10
818.9066833461
 20
793.9804568076
 30
0.0
 11
823.6748984659
 21
766.938574531
 31
0.0
  0
LINE
  5
72
330
1F
100
AcDbEntity
  8
0
  6
Continuous
 62
     7
370
    15
100
AcDbLine
 10
878.2642221654
 20
766.938574531
 30
0.0
 11
883.0324372852
 21
793.9804568076
 31
0.0
  0
LINE
  5
73
330
1F
100
AcDbEntity
  8
0
  6
Continuous
 62
     7
370
    15
100
AcDbLine
 10
867.4428834224
 20
775.6159826302
 30
0.0
 11
867.9695612395
 21
775.6159826302
 31
0.0
  0
LINE
  5
74
330
1F
100
AcDbEntity
  8
0
  6
Continuous
 62
     7
370
    15
100
AcDbLine
 10
833.9695593918
 20
775.6159826302
 30
0.0
 11
834.4962372089
 21
775.6159826302
 31
0.0
  0
ARC
  5
75
330
1F
100
AcDbEntity
  8
0
  6
Continuous
 62
     7
370
    15
100
AcDbCircle
 10
867.9695603157
 20
778.6159807159
 30
0.0
 40
3.0
100
AcDbArc
 50
270.0591490505
 51
0.0
  0
LINE
  5
76
330
1F
100
AcDbEntity
  8
0
  6
Continuous
 62
     7
370
    15
100
AcDbLine
 10
867.9695612395
 20
775.6159826302
 30
0.0
 11
867.9726569558
 21
775.6159826302
 31
0.0
  0
LINE
  5
77
330
1F
100
AcDbEntity
  8
0
  6
Continuous
 62
     7
370
    15
100
AcDbLine
 10
833.9631984586
 20
775.6159826302
 30
0.0
 11
833.9695593918
 21
775.6159826302
 31
0.0
  0
ARC
  5
78
330
1F
100
AcDbEntity
  8
0
  6
Continuous
 62
     7
370
    15
100
AcDbCircle
 10
833.9695603157
 20
778.6159807159
 30
0.0
 40
3.000000000000005
100
AcDbArc
 50
180.0
 51
269.8785057303
  0
ARC
  5
79
330
1F
100
AcDbEntity
  8
0
  6
Continuous
 62
     7
370
    15
100
AcDbCircle
 10
875.3097980395
 20
767.459516623
 30
0.0
 40
3.000000000000114
100
AcDbArc
 50
270.0
 51
350.0
  0
ARC
  5
7A
330
1F
100
AcDbEntity
  8
0
  6
Continuous
 62
     7
370
    15
100
AcDbCircle
 10
826.6293225919
 20
767.459516623
 30
0.0
 40
3.000000000000114
100
AcDbArc
 50
190.0
 51
270.0
  0
ARC
  5
7B
330
1F
100
AcDbEntity
  8
0
  6
Continuous
 62
     7
370
    15
100
AcDbCircle
 10
885.9868592092
 20
793.459516623
 30
0.0
 40
3.000000000000091
100
AcDbArc
 50
90.0
 51
170.0
  0
ARC
  5
7C
330
1F
100
AcDbEntity
  8
0
  6
Continuous
 62
     7
370
    15
100
AcDbCircle
 10
815.9522614221
 20
793.459516623
 30
0.0
 40
3.000000000000091
100
AcDbArc
 50
10.0
 51
90.0
  0
ARC
  5
7D
330
1F
100
AcDbEntity
  8
0
  6
Continuous
 62
     7
370
    15
100
AcDbCircle
 10
1420.9495603157
 20
810.299516623
 30
0.0
 40
4.259999999999867
100
AcDbArc
 50
0.0
 51
52.1776591166
  0
ARC
  5
7E
330
1F
100
AcDbEntity
  8
0
  6
Continuous
 62
     7
370
    15
100
AcDbCircle
 10
1366.9895603157
 20
810.299516623
 30
0.0
 40
4.260000000000008
100
AcDbArc
 50
127.8223408834
 51
180.0
  0
ARC
  5
7F
330
1F
100
AcDbEntity
  8
0
  6
Continuous
 62
     7
370
    15
100
AcDbCircle
 10
1420.2395603157
 20
810.299516623
 30
0.0
 40
4.970000000000023
100
AcDbArc
 50
311.8103148958
 51
0.0
  0
ARC
  5
80
330
1F
100
AcDbEntity
  8
0
  6
Continuous
 62
     7
370
    15
100
AcDbCircle
 10
1367.6995603157
 20
810.299516623
 30
0.0
 40
4.970000000000027
100
AcDbArc
 50
180.0
 51
228.1896851042
  0
ARC
  5
81
330
1F
100
AcDbEntity
  8
0
  6
Continuous
 62
     7
370
    15
100
AcDbCircle
 10
1364.0706564118
 20
814.059516623
 30
0.0
 40
0.5000000000000464
100
AcDbArc
 50
307.8223408834
 51
90.0
  0
ARC
  5
82
330
1F
100
AcDbEntity
  8
0
  6
Continuous
 62
     7
370
    15
100
AcDbCircle
 10
1423.8684642195
 20
814.059516623
 30
0.0
 40
0.5000000000000464
100
AcDbArc
 50
90.0
 51
232.1776591166
  0
ARC
  5
83
330
1F
100
AcDbEntity
  8
0
  6
Continuous
 62
     7
370
    15
100
AcDbCircle
 10
1441.5395603157
 20
786.4853926626
 30
0.0
 40
26.98000000000002
100
AcDbArc
 50
131.8103148958
 51
180.0
  0
ARC
  5
84
330
1F
100
AcDbEntity
  8
0
  6
Continuous
 62
     7
370
    15
100
AcDbCircle
 10
1346.3995603157
 20
786.4853926626
 30
0.0
 40
26.98000000000002
100
AcDbArc
 50
0.0
 51
48.1896851042
  0
ARC
  5
85
330
1F
100
AcDbEntity
  8
0
  6
Continuous
 62
     7
370
    15
100
AcDbCircle
 10
1416.1473294259
 20
767.344516623
 30
0.0
 40
3.905000000000227
100
AcDbArc
 50
270.0
 51
22.3835237867
  0
ARC
  5
86
330
1F
100
AcDbEntity
  8
0
  6
Continuous
 62
     7
370
    15
100
AcDbCircle
 10
1371.7917912054
 20
767.344516623
 30
0.0
 40
3.905000000000227
100
AcDbArc
 50
157.6164762133
 51
270.0
  0
ARC
  5
87
330
1F
100
AcDbEntity
  8
0
  6
Continuous
 62
     7
370
    15
100
AcDbCircle
 10
1374.0895603157
 20
766.3982174547
 30
0.0
 40
6.390000000000046
100
AcDbArc
 50
146.796900802
 51
157.6164762133
  0
ARC
  5
88
330
1F
100
AcDbEntity
  8
0
  6
Continuous
 62
     7
370
    15
100
AcDbCircle
 10
1413.8495603157
 20
766.3982174547
 30
0.0
 40
6.390000000000042
100
AcDbArc
 50
22.3835237867
 51
33.203099198
  0
ARC
  5
89
330
1F
100
AcDbEntity
  8
0
  6
Continuous
 62
     7
370
    15
100
AcDbCircle
 10
1414.9695603157
 20
754.6825352372
 30
0.0
 40
4.500000000000649
100
AcDbArc
 50
0.0
 51
86.1924001848
  0
ARC
  5
8A
330
1F
100
AcDbEntity
  8
0
  6
Continuous
 62
     7
370
    15
100
AcDbCircle
 10
1372.9695603157
 20
754.6825352372
 30
0.0
 40
4.500000000000634
100
AcDbArc
 50
93.8075998152
 51
180.0
  0
ARC
  5
8B
330
1F
100
AcDbEntity
  8
0
  6
Continuous
 62
     7
370
    15
100
AcDbCircle
 10
1414.9695603157
 20
754.6825352372
 30
0.0
 40
4.500000000000227
100
AcDbArc
 50
270.0
 51
0.0
  0
ARC
  5
8C
330
1F
100
AcDbEntity
  8
0
  6
Continuous
 62
     7
370
    15
100
AcDbCircle
 10
1372.9695603157
 20
754.6825352372
 30
0.0
 40
4.500000000000227
100
AcDbArc
 50
180.0
 51
270.0
  0
ARC
  5
8D
330
1F
100
AcDbEntity
  8
0
  6
Continuous
 62
     7
370
    15
100
AcDbCircle
 10
1442.9595603157
 20
785.449516623
 30
0.0
 40
28.39999999999987
100
AcDbArc
 50
180.0
 51
213.203099198
  0
ARC
  5
8E
330
1F
100
AcDbEntity
  8
0
  6
Continuous
 62
     7
370
    15
100
AcDbCircle
 10
1344.9795603157
 20
785.449516623
 30
0.0
 40
28.40000000000009
100
AcDbArc
 50
326.796900802
 51
0.0
  0
ARC
  5
8F
330
1F
100
AcDbEntity
  8
0
  6
Continuous
 62
     7
370
    15
100
AcDbCircle
 10
1415.3945603157
 20
761.539516623
 30
0.0
 40
1.900000000000091
100
AcDbArc
 50
90.0
 51
180.0
  0
ARC
  5
90
330
1F
100
AcDbEntity
  8
0
  6
Continuous
 62
     7
370
    15
100
AcDbCircle
 10
1372.5445603157
 20
761.539516623
 30
0.0
 40
1.900000000000091
100
AcDbArc
 50
0.0
 51
90.0
  0
ARC
  5
91
330
1F
100
AcDbEntity
  8
0
  6
Continuous
 62
     7
370
    15
100
AcDbCircle
 10
1372.5445603157
 20
761.0684083177
 30
0.0
 40
1.900000000000091
100
AcDbArc
 50
273.8075998157
 51
0.0
  0
ARC
  5
92
330
1F
100
AcDbEntity
  8
0
  6
Continuous
 62
     7
370
    15
100
AcDbCircle
 10
1415.3945603157
 20
761.0684083177
 30
0.0
 40
1.900000000000091
100
AcDbArc
 50
180.0
 51
266.1924001843
  0
LINE
  5
93
330
1F
100
AcDbEntity
  8
0
  6
Continuous
 62
     7
370
    15
100
AcDbLine
 10
1372.9695750976
 20
750.1825316929
 30
0.0
 11
1377.7040316368
 21
207.6650782608
 31
0.0
  0
LINE
  5
94
330
1F
100
AcDbEntity
  8
0
  6
Continuous
 62
     7
370
    15
100
AcDbLine
 10
1410.2350546623
 20
207.6650782608
 30
0.0
 11
1414.9695708061
 21
750.1825316929
 31
0.0
  0
LINE
  5
95
330
1F
100
AcDbEntity
  8
0
  6
Continuous
 62
     7
370
    15
100
AcDbLine
 10
1373.3795358444
 20
786.4853962445
 30
0.0
 11
1373.3795358444
 21
785.4495122217
 31
0.0
  0
LINE
  5
96
330
1F
100
AcDbEntity
  8
0
  6
Continuous
 62
     7
370
    15
100
AcDbLine
 10
1414.5595504547
 20
785.4495122217
 30
0.0
 11
1414.5595504547
 21
786.4853962445
 31
0.0
  0
LINE
  5
97
330
1F
100
AcDbEntity
  8
0
  6
Continuous
 62
     7
370
    15
100
AcDbLine
 10
1374.4445516372
 20
761.5395113015
 30
0.0
 11
1374.4445516372
 21
761.0684110903
 31
0.0
  0
LINE
  5
98
330
1F
100
AcDbEntity
  8
0
  6
Continuous
 62
     7
370
    15
100
AcDbLine
 10
1413.4945346618
 20
761.0684110903
 30
0.0
 11
1413.4945346618
 21
761.5395113015
 31
0.0
  0
ARC
  5
99
330
1F
100
AcDbEntity
  8
0
  6
Continuous
 62
     7
370
    15
100
AcDbCircle
 10
1408.4695603157
 20
190.1825352372
 30
0.0
 40
3.5
100
AcDbArc
 50
270.0
 51
0.0
  0
ARC
  5
9A
330
1F
100
AcDbEntity
  8
0
  6
Continuous
 62
     7
370
    15
100
AcDbCircle
 10
1379.4695603157
 20
190.1825352372
 30
0.0
 40
3.5
100
AcDbArc
 50
180.0
 51
270.0
  0
ARC
  5
9B
330
1F
100
AcDbEntity
  8
0
  6
Continuous
 62
     7
370
    15
100
AcDbCircle
 10
1379.4695603157
 20
190.5173838473
 30
0.0
 40
3.50000000000004
100
AcDbArc
 50
105.2575232905
 51
180.0
  0
ARC
  5
9C
330
1F
100
AcDbEntity
  8
0
  6
Continuous
 62
     7
370
    15
100
AcDbCircle
 10
1408.4695603157
 20
190.5173838473
 30
0.0
 40
3.50000000000004
100
AcDbArc
 50
0.0
 51
74.7424767095
  0
LINE
  5
9D
330
1F
100
AcDbEntity
  8
0
  6
Continuous
 62
     7
370
    15
100
AcDbLine
 10
1375.9695364738
 20
190.5173584008
 30
0.0
 11
1375.9695364738
 21
190.1825591111
 31
0.0
  0
LINE
  5
9E
330
1F
100
AcDbEntity
  8
0
  6
Continuous
 62
     7
370
    15
100
AcDbLine
 10
1411.9695498253
 20
190.1825591111
 30
0.0
 11
1411.9695498253
 21
190.5173584008
 31
0.0
  0
ARC
  5
9F
330
1F
100
AcDbEntity
  8
0
  6
Continuous
 62
     7
370
    15
100
AcDbCircle
 10
1408.2351583824
 20
207.6825352372
 30
0.0
 40
2.000000000000095
100
AcDbArc
 50
289.9865925295
 51
359.5
  0
ARC
  5
A0
330
1F
100
AcDbEntity
  8
0
  6
Continuous
 62
     7
370
    15
100
AcDbCircle
 10
1379.7039622489
 20
207.6825352372
 30
0.0
 40
2.000000000000125
100
AcDbArc
 50
180.5
 51
250.0134074705
  0
ARC
  5
A1
330
1F
100
AcDbEntity
  8
0
  6
Continuous
 62
     7
370
    15
100
AcDbCircle
 10
1410.9695603157
 20
199.6825352372
 30
0.0
 40
6.000000000000001
100
AcDbArc
 50
180.0
 51
254.7424767095
  0
ARC
  5
A2
330
1F
100
AcDbEntity
  8
0
  6
Continuous
 62
     7
370
    15
100
AcDbCircle
 10
1376.9695603157
 20
199.6825352372
 30
0.0
 40
6.000000000000061
100
AcDbArc
 50
285.2575232905
 51
0.0
  0
ARC
  5
A3
330
1F
100
AcDbEntity
  8
0
  6
Continuous
 62
     7
370
    15
100
AcDbCircle
 10
1410.9695603157
 20
200.1643542028
 30
0.0
 40
5.999999999999882
100
AcDbArc
 50
109.9865925295
 51
180.0
  0
ARC
  5
A4
330
1F
100
AcDbEntity
  8
0
  6
Continuous
 62
     7
370
    15
100
AcDbCircle
 10
1376.9695603157
 20
200.1643542028
 30
0.0
 40
5.99999999999996
100
AcDbArc
 50
0.0
 51
70.0134074705
  0
ARC
  5
A5
330
1F
100
AcDbEntity
  8
0
  6
Continuous
 62
     7
370
    15
100
AcDbCircle
 10
1408.444042599
 20
186.1825352372
 30
0.0
 40
0.5000000000001413
100
AcDbArc
 50
90.0
 51
177.0
  0
ARC
  5
A6
330
1F
100
AcDbEntity
  8
0
  6
Continuous
 62
     7
370
    15
100
AcDbCircle
 10
1379.4950780323
 20
186.1825352372
 30
0.0
 40
0.5000000000003684
100
AcDbArc
 50
3.0
 51
90.0
  0
LINE
  5
A7
330
1F
100
AcDbEntity
  8
0
  6
Continuous
 62
     7
370
    15
100
AcDbLine
 10
1379.9943997169
 20
186.2087174439
 30
0.0
 11
1383.2739664817
 21
123.6302181267
 31
0.0
  0
LINE
  5
A8
330
1F
100
AcDbEntity
  8
0
  6
Continuous
 62
     7
370
    15
100
AcDbLine
 10
1404.6651198173
 20
123.6302181267
 30
0.0
 11
1407.9447461868
 21
186.2087174439
 31
0.0
  0
LINE
  5
A9
330
1F
100
AcDbEntity
  8
0
  6
Continuous
 62
     7
370
    15
100
AcDbLine
 10
1382.9695655609
 20
200.1643701577
 30
0.0
 11
1382.9695655609
 21
199.6825262093
 31
0.0
  0
LINE
  5
AA
330
1F
100
AcDbEntity
  8
0
  6
Continuous
 62
     7
370
    15
100
AcDbLine
 10
1404.9695803428
 20
199.6825262093
 30
0.0
 11
1404.9695803428
 21
200.1643701577
 31
0.0
  0
ARC
  5
AB
330
1F
100
AcDbEntity
  8
0
  6
Continuous
 62
     7
370
    15
100
AcDbCircle
 10
1403.6664978748
 20
123.6825352372
 30
0.0
 40
1.000000000000056
100
AcDbArc
 50
270.0
 51
357.0
  0
ARC
  5
AC
330
1F
100
AcDbEntity
  8
0
  6
Continuous
 62
     7
370
    15
100
AcDbCircle
 10
1384.2726227565
 20
123.6825352372
 30
0.0
 40
1.000000000000056
100
AcDbArc
 50
183.0
 51
270.0
  0
ARC
  5
AD
330
1F
100
AcDbEntity
  8
0
  6
Continuous
 62
     7
370
    15
100
AcDbCircle
 10
334.2395603157
 20
810.299516623
 30
0.0
 40
4.970000000000027
100
AcDbArc
 50
311.8103148958
 51
0.0
  0
ARC
  5
AE
330
1F
100
AcDbEntity
  8
0
  6
Continuous
 62
     7
370
    15
100
AcDbCircle
 10
281.6995603157
 20
810.299516623
 30
0.0
 40
4.970000000000027
100
AcDbArc
 50
180.0
 51
228.1896851042
  0
ARC
  5
AF
330
1F
100
AcDbEntity
  8
0
  6
Continuous
 62
     7
370
    15
100
AcDbCircle
 10
334.9495603157
 20
810.299516623
 30
0.0
 40
4.260000000000048
100
AcDbArc
 50
0.0
 51
52.1776591166
  0
ARC
  5
B0
330
1F
100
AcDbEntity
  8
0
  6
Continuous
 62
     7
370
    15
100
AcDbCircle
 10
280.9895603157
 20
810.299516623
 30
0.0
 40
4.260000000000048
100
AcDbArc
 50
127.8223408834
 51
180.0
  0
ARC
  5
B1
330
1F
100
AcDbEntity
  8
0
  6
Continuous
 62
     7
370
    15
100
AcDbCircle
 10
278.0706564118
 20
814.059516623
 30
0.0
 40
0.5000000000000813
100
AcDbArc
 50
307.8223408834
 51
90.0
  0
ARC
  5
B2
330
1F
100
AcDbEntity
  8
0
  6
Continuous
 62
     7
370
    15
100
AcDbCircle
 10
337.8684642195
 20
814.059516623
 30
0.0
 40
0.5000000000000115
100
AcDbArc
 50
90.0
 51
232.1776591166
  0
ARC
  5
B3
330
1F
100
AcDbEntity
  8
0
  6
Continuous
 62
     7
370
    15
100
AcDbCircle
 10
355.5395603157
 20
786.4853926626
 30
0.0
 40
26.98000000000005
100
AcDbArc
 50
131.8103148958
 51
180.0
  0
ARC
  5
B4
330
1F
100
AcDbEntity
  8
0
  6
Continuous
 62
     7
370
    15
100
AcDbCircle
 10
260.3995603157
 20
786.4853926626
 30
0.0
 40
26.98000000000005
100
AcDbArc
 50
0.0
 51
48.1896851042
  0
ARC
  5
B5
330
1F
100
AcDbEntity
  8
0
  6
Continuous
 62
     7
370
    15
100
AcDbCircle
 10
330.1473294259
 20
767.344516623
 30
0.0
 40
3.905000000000086
100
AcDbArc
 50
270.0
 51
22.3835237867
  0
ARC
  5
B6
330
1F
100
AcDbEntity
  8
0
  6
Continuous
 62
     7
370
    15
100
AcDbCircle
 10
285.7917912054
 20
767.344516623
 30
0.0
 40
3.905000000000086
100
AcDbArc
 50
157.6164762133
 51
270.0
  0
ARC
  5
B7
330
1F
100
AcDbEntity
  8
0
  6
Continuous
 62
     7
370
    15
100
AcDbCircle
 10
288.0895603157
 20
766.3982174547
 30
0.0
 40
6.38999999999999
100
AcDbArc
 50
146.796900802
 51
157.6164762133
  0
ARC
  5
B8
330
1F
100
AcDbEntity
  8
0
  6
Continuous
 62
     7
370
    15
100
AcDbCircle
 10
327.8495603157
 20
766.3982174547
 30
0.0
 40
6.390000000000046
100
AcDbArc
 50
22.3835237867
 51
33.203099198
  0
ARC
  5
B9
330
1F
100
AcDbEntity
  8
0
  6
Continuous
 62
     7
370
    15
100
AcDbCircle
 10
328.9695603157
 20
754.6825352372
 30
0.0
 40
4.500000000000114
100
AcDbArc
 50
270.0
 51
0.0
  0
ARC
  5
BA
330
1F
100
AcDbEntity
  8
0
  6
Continuous
 62
     7
370
    15
100
AcDbCircle
 10
286.9695603157
 20
754.6825352372
 30
0.0
 40
4.500000000000114
100
AcDbArc
 50
180.0
 51
270.0
  0
ARC
  5
BB
330
1F
100
AcDbEntity
  8
0
  6
Continuous
 62
     7
370
    15
100
AcDbCircle
 10
328.9695603157
 20
754.6825352372
 30
0.0
 40
4.500000000000623
100
AcDbArc
 50
0.0
 51
86.1924001848
  0
ARC
  5
BC
330
1F
100
AcDbEntity
  8
0
  6
Continuous
 62
     7
370
    15
100
AcDbCircle
 10
286.9695603157
 20
754.6825352372
 30
0.0
 40
4.500000000000623
100
AcDbArc
 50
93.8075998152
 51
180.0
  0
ARC
  5
BD
330
1F
100
AcDbEntity
  8
0
  6
Continuous
 62
     7
370
    15
100
AcDbCircle
 10
356.9595603157
 20
785.449516623
 30
0.0
 40
28.39999999999998
100
AcDbArc
 50
180.0
 51
213.203099198
  0
ARC
  5
BE
330
1F
100
AcDbEntity
  8
0
  6
Continuous
 62
     7
370
    15
100
AcDbCircle
 10
258.9795603157
 20
785.449516623
 30
0.0
 40
28.40000000000002
100
AcDbArc
 50
326.796900802
 51
0.0
  0
ARC
  5
BF
330
1F
100
AcDbEntity
  8
0
  6
Continuous
 62
     7
370
    15
100
AcDbCircle
 10
329.3945603157
 20
761.539516623
 30
0.0
 40
1.900000000000034
100
AcDbArc
 50
90.0
 51
180.0
  0
ARC
  5
C0
330
1F
100
AcDbEntity
  8
0
  6
Continuous
 62
     7
370
    15
100
AcDbCircle
 10
286.5445603157
 20
761.539516623
 30
0.0
 40
1.900000000000034
100
AcDbArc
 50
0.0
 51
90.0
  0
ARC
  5
C1
330
1F
100
AcDbEntity
  8
0
  6
Continuous
 62
     7
370
    15
100
AcDbCircle
 10
286.5445603157
 20
761.0684083177
 30
0.0
 40
1.900000000000034
100
AcDbArc
 50
273.8075998157
 51
0.0
  0
ARC
  5
C2
330
1F
100
AcDbEntity
  8
0
  6
Continuous
 62
     7
370
    15
100
AcDbCircle
 10
329.3945603157
 20
761.0684083177
 30
0.0
 40
1.900000000000034
100
AcDbArc
 50
180.0
 51
266.1924001843
  0
LINE
  5
C3
330
1F
100
AcDbEntity
  8
0
  6
Continuous
 62
     7
370
    15
100
AcDbLine
 10
286.9695498253
 20
750.1825316929
 30
0.0
 11
291.7040659691
 21
207.6650782608
 31
0.0
  0
LINE
  5
C4
330
1F
100
AcDbEntity
  8
0
  6
Continuous
 62
     7
370
    15
100
AcDbLine
 10
324.2350889946
 20
207.6650782608
 30
0.0
 11
328.9695455337
 21
750.1825316929
 31
0.0
  0
LINE
  5
C5
330
1F
100
AcDbEntity
  8
0
  6
Continuous
 62
     7
370
    15
100
AcDbLine
 10
287.3795701767
 20
786.4853962445
 30
0.0
 11
287.3795701767
 21
785.4495122217
 31
0.0
  0
LINE
  5
C6
330
1F
100
AcDbEntity
  8
0
  6
Continuous
 62
     7
370
    15
100
AcDbLine
 10
328.559584787
 20
785.4495122217
 30
0.0
 11
328.559584787
 21
786.4853962445
 31
0.0
  0
LINE
  5
C7
330
1F
100
AcDbEntity
  8
0
  6
Continuous
 62
     7
370
    15
100
AcDbLine
 10
288.4445859695
 20
761.5395113015
 30
0.0
 11
288.4445859695
 21
761.0684110903
 31
0.0
  0
LINE
  5
C8
330
1F
100
AcDbEntity
  8
0
  6
Continuous
 62
     7
370
    15
100
AcDbLine
 10
327.4945689941
 20
761.0684110903
 30
0.0
 11
327.4945689941
 21
761.5395113015
 31
0.0
  0
ARC
  5
C9
330
1F
100
AcDbEntity
  8
0
  6
Continuous
 62
     7
370
    15
100
AcDbCircle
 10
293.4695603157
 20
190.5173838473
 30
0.0
 40
3.500000000000057
100
AcDbArc
 50
105.2575232905
 51
180.0
  0
ARC
  5
CA
330
1F
100
AcDbEntity
  8
0
  6
Continuous
 62
     7
370
    15
100
AcDbCircle
 10
322.4695603157
 20
190.5173838473
 30
0.0
 40
3.500000000000057
100
AcDbArc
 50
0.0
 51
74.7424767095
  0
LINE
  5
CB
330
1F
100
AcDbEntity
  8
0
  6
Continuous
 62
     7
370
    15
100
AcDbLine
 10
289.9695708061
 20
190.5173584008
 30
0.0
 11
289.9695708061
 21
190.1825591111
 31
0.0
  0
LINE
  5
CC
330
1F
100
AcDbEntity
  8
0
  6
Continuous
 62
     7
370
    15
100
AcDbLine
 10
325.9695841575
 20
190.1825591111
 30
0.0
 11
325.9695841575
 21
190.5173584008
 31
0.0
  0
ARC
  5
CD
330
1F
100
AcDbEntity
  8
0
  6
Continuous
 62
     7
370
    15
100
AcDbCircle
 10
322.4695603157
 20
190.1825352372
 30
0.0
 40
3.500000000000057
100
AcDbArc
 50
270.0
 51
0.0
  0
ARC
  5
CE
330
1F
100
AcDbEntity
  8
0
  6
Continuous
 62
     7
370
    15
100
AcDbCircle
 10
293.4695603157
 20
190.1825352372
 30
0.0
 40
3.500000000000057
100
AcDbArc
 50
180.0
 51
270.0
  0
ARC
  5
CF
330
1F
100
AcDbEntity
  8
0
  6
Continuous
 62
     7
370
    15
100
AcDbCircle
 10
322.2351583824
 20
207.6825352372
 30
0.0
 40
2.000000000000075
100
AcDbArc
 50
289.9865925295
 51
359.5
  0
ARC
  5
D0
330
1F
100
AcDbEntity
  8
0
  6
Continuous
 62
     7
370
    15
100
AcDbCircle
 10
293.7039622489
 20
207.6825352372
 30
0.0
 40
2.000000000000075
100
AcDbArc
 50
180.5
 51
250.0134074705
  0
ARC
  5
D1
330
1F
100
AcDbEntity
  8
0
  6
Continuous
 62
     7
370
    15
100
AcDbCircle
 10
324.9695603157
 20
199.6825352372
 30
0.0
 40
6.000000000000031
100
AcDbArc
 50
180.0
 51
254.7424767095
  0
ARC
  5
D2
330
1F
100
AcDbEntity
  8
0
  6
Continuous
 62
     7
370
    15
100
AcDbCircle
 10
290.9695603157
 20
199.6825352372
 30
0.0
 40
6.000000000000031
100
AcDbArc
 50
285.2575232905
 51
0.0
  0
ARC
  5
D3
330
1F
100
AcDbEntity
  8
0
  6
Continuous
 62
     7
370
    15
100
AcDbCircle
 10
324.9695603157
 20
200.1643542028
 30
0.0
 40
6.0
100
AcDbArc
 50
109.9865925295
 51
180.0
  0
ARC
  5
D4
330
1F
100
AcDbEntity
  8
0
  6
Continuous
 62
     7
370
    15
100
AcDbCircle
 10
290.9695603157
 20
200.1643542028
 30
0.0
 40
6.0
100
AcDbArc
 50
0.0
 51
70.0134074705
  0
ARC
  5
D5
330
1F
100
AcDbEntity
  8
0
  6
Continuous
 62
     7
370
    15
100
AcDbCircle
 10
322.444042599
 20
186.1825352372
 30
0.0
 40
0.5000000000000278
100
AcDbArc
 50
90.0
 51
177.0
  0
ARC
  5
D6
330
1F
100
AcDbEntity
  8
0
  6
Continuous
 62
     7
370
    15
100
AcDbCircle
 10
293.4950780323
 20
186.1825352372
 30
0.0
 40
0.5000000000000278
100
AcDbArc
 50
3.0
 51
90.0
  0
LINE
  5
D7
330
1F
100
AcDbEntity
  8
0
  6
Continuous
 62
     7
370
    15
100
AcDbLine
 10
293.9943744445
 20
186.2087174439
 30
0.0
 11
297.274000814
 21
123.6302181267
 31
0.0
  0
LINE
  5
D8
330
1F
100
AcDbEntity
  8
0
  6
Continuous
 62
     7
370
    15
100
AcDbLine
 10
318.6651541496
 20
123.6302181267
 30
0.0
 11
321.9447209144
 21
186.2087174439
 31
0.0
  0
LINE
  5
D9
330
1F
100
AcDbEntity
  8
0
  6
Continuous
 62
     7
370
    15
100
AcDbLine
 10
296.9695402885
 20
200.1643701577
 30
0.0
 11
296.9695402885
 21
199.6825262093
 31
0.0
  0
LINE
  5
DA
330
1F
100
AcDbEntity
  8
0
  6
Continuous
 62
     7
370
    15
100
AcDbLine
 10
318.9695550705
 20
199.6825262093
 30
0.0
 11
318.9695550705
 21
200.1643701577
 31
0.0
  0
ARC
  5
DB
330
1F
100
AcDbEntity
  8
0
  6
Continuous
 62
     7
370
    15
100
AcDbCircle
 10
317.6664978748
 20
123.6825352372
 30
0.0
 40
1.000000000000056
100
AcDbArc
 50
270.0
 51
357.0
  0
ARC
  5
DC
330
1F
100
AcDbEntity
  8
0
  6
Continuous
 62
     7
370
    15
100
AcDbCircle
 10
298.2726227565
 20
123.6825352372
 30
0.0
 40
1.000000000000056
100
AcDbArc
 50
183.0
 51
270.0
  0
SPLINE
  5
DD
330
1F
100
AcDbEntity
  8
0
  6
Continuous
 62
     7
370
    15
100
AcDbSpline
210
0.0
220
0.0
230
1.0
 70
    24
 71
     3
 72
    14
 73
    10
 74
     0
 42
0.000000001
 43
0.00000001
 40
0.0
 40
0.0
 40
0.0
 40
0.0
 40
0.120373406196678
 40
0.2985044101028307
 40
0.4712992996724403
 40
0.6440940978151042
 40
0.7626829050793866
 40
0.8813799469280952
 40
1.0
 40
1.0
 40
1.0
 40
1.0
 10
870.9695598686357
 20
814.3595232748353
 30
0.0
 10
870.9695598686357
 20
812.2416580866484
 30
0.0
 10
870.9695598686357
 20
806.9897331087667
 30
0.0
 10
870.9695598686357
 20
799.9206912058117
 30
0.0
 10
870.9695598686357
 20
793.0452261504021
 30
0.0
 10
870.9695598686357
 20
787.9870944828219
 30
0.0
 10
870.9695598686357
 20
784.3346506208551
 30
0.0
 10
870.9695598686357
 20
781.7012077132333
 30
0.0
 10
870.9695598686357
 20
780.3885660999035
 30
0.0
 10
870.9695598686357
 20
779.7324582123124
 30
0.0
  0
SPLINE
  5
DE
330
1F
100
AcDbEntity
  8
0
  6
Continuous
 62
     7
370
    15
100
AcDbSpline
210
0.0
220
0.0
230
1.0
 70
    24
 71
     3
 72
    13
 73
     9
 74
     0
 42
0.000000001
 43
0.00000001
 40
0.0
 40
0.0
 40
0.0
 40
0.0
 40
0.1751106950739165
 40
0.3508286319515849
 40
0.526486180103761
 40
0.7015144037580371
 40
0.8767866171505613
 40
0.9999999999999999
 40
0.9999999999999999
 40
0.9999999999999999
 40
0.9999999999999999
 10
830.9695607627053
 20
779.7324582123124
 30
0.0
 10
830.9695607627053
 20
780.745464988083
 30
0.0
 10
830.9695607627053
 20
782.7749914036525
 30
0.0
 10
830.9695607627053
 20
787.332566307436
 30
0.0
 10
830.9695607627053
 20
792.9679464103558
 30
0.0
 10
830.9695607627053
 20
799.8425132662576
 30
0.0
 10
830.9695607627053
 20
806.9547754738908
 30
0.0
 10
830.9695607627053
 20
812.1959799158565
 30
0.0
 10
830.9695607627053
 20
814.3595232748353
 30
0.0
  0
LINE
  5
DF
330
1F
100
AcDbEntity
  8
0
  6
Continuous
 62
     7
370
    15
100
AcDbLine
 10
890.6522540951
 20
796.4595182919
 30
0.0
 11
885.9679101611
 21
796.4595182919
 31
0.0
  0
LINE
  5
E0
330
1F
100
AcDbEntity
  8
0
  6
Continuous
 62
     7
370
    15
100
AcDbLine
 10
815.971206745
 20
796.4595182919
 30
0.0
 11
811.2868106568
 21
796.4595182919
 31
0.0
  0
SPLINE
  5
E1
330
1F
100
AcDbEntity
  8
0
  6
Continuous
 62
     7
370
    15
100
AcDbSpline
210
0.0
220
0.0
230
1.0
 70
     8
 71
     3
 72
    11
 73
     7
 74
     0
 42
0.000000001
 43
0.00000001
 40
0.0
 40
0.0
 40
0.0
 40
0.0
 40
0.2965835942900686
 40
0.5759077282887202
 40
0.8486263323958888
 40
1.0
 40
1.0
 40
1.0
 40
1.0
 10
806.8189358914514
 20
792.1958788418137
 30
0.0
 10
806.0783560958496
 20
792.6959954808526
 30
0.0
 10
804.6402939915633
 20
793.6671248454339
 30
0.0
 10
802.7127163090454
 20
794.9462209053141
 30
0.0
 10
801.1703788624054
 20
795.9889103673179
 30
0.0
 10
800.3533238079955
 20
796.5940553617176
 30
0.0
 10
800.0616876984258
 20
796.810053207811
 30
0.0
  0
SPLINE
  5
E2
330
1F
100
AcDbEntity
  8
0
  6
Continuous
 62
     7
370
    15
100
AcDbSpline
210
0.0
220
0.0
230
1.0
 70
     8
 71
     3
 72
    11
 73
     7
 74
     0
 42
0.000000001
 43
0.00000001
 40
0.0
 40
0.0
 40
0.0
 40
0.0
 40
0.1490381511570204
 40
0.4224906590799566
 40
0.7025906596206191
 40
1.0
 40
1.0
 40
1.0
 40
1.0
 10
901.9201061332841
 20
796.798594214853
 30
0.0
 10
901.6323403009818
 20
796.5865583815292
 30
0.0
 10
900.816586916991
 20
795.9854830308623
 30
0.0
 10
899.27390339651
 20
794.946771425922
 30
0.0
 10
897.3396039281507
 20
793.6674178913125
 30
0.0
 10
895.8988383413795
 20
792.6955650037054
 30
0.0
 10
895.1568639481683
 20
792.1950741791093
 30
0.0
  0
LINE
  5
E3
330
1F
100
AcDbEntity
  8
0
  6
Continuous
 62
     7
370
    15
100
AcDbLine
 10
870.9695598686
 20
779.7324582123
 30
0.0
 11
870.9695598686
 21
778.7096723103
 31
0.0
  0
LINE
  5
E4
330
1F
100
AcDbEntity
  8
0
  6
Continuous
 62
     7
370
    15
100
AcDbLine
 10
830.9695607627
 20
778.7096723103
 30
0.0
 11
830.9695607627
 21
779.7324582123
 31
0.0
  0
LINE
  5
E5
330
1F
100
AcDbEntity
  8
0
  6
Continuous
 62
     7
370
    15
100
AcDbLine
 10
862.8651731292
 20
775.7262065195
 30
0.0
 11
867.9695612395
 21
775.617442944
 31
0.0
  0
LINE
  5
E6
330
1F
100
AcDbEntity
  8
0
  6
Continuous
 62
     7
370
    15
100
AcDbLine
 10
833.9695593918
 20
775.617442944
 30
0.0
 11
839.0739475021
 21
775.7262065195
 31
0.0
  0
LINE
  5
E7
330
1F
100
AcDbEntity
  8
0
  6
Continuous
 62
     7
370
    15
100
AcDbLine
 10
870.9695598686
 20
778.7096723103
 30
0.0
 11
870.9695598686
 21
778.6159738087
 31
0.0
  0
LINE
  5
E8
330
1F
100
AcDbEntity
  8
0
  6
Continuous
 62
     7
370
    15
100
AcDbLine
 10
830.9695607627
 20
778.6159738087
 30
0.0
 11
830.9695607627
 21
778.7096723103
 31
0.0
  0
LINE
  5
E9
330
1F
100
AcDbEntity
  8
0
  6
Continuous
 62
     7
370
    15
100
AcDbLine
 10
875.3097987378
 20
764.4595130467
 30
0.0
 11
826.6293218935
 21
764.4595130467
 31
0.0
  0
LINE
  5
EA
330
1F
100
AcDbEntity
  8
0
  6
Continuous
 62
     7
370
    15
100
AcDbLine
 10
275.9695722366
 20
978.5595166384
 30
0.0
 11
275.9695722366
 21
978.6595166432
 31
0.0
  0
ARC
  5
EB
330
1F
100
AcDbEntity
  8
0
  6
Continuous
 62
     7
370
    15
100
AcDbCircle
 10
276.9695603157
 20
978.659516623
 30
0.0
 40
1.0
100
AcDbArc
 50
126.8698976458
 51
180.0
  0
LINE
  5
EC
330
1F
100
AcDbEntity
  8
0
  6
Continuous
 62
     7
370
    15
100
AcDbLine
 10
1425.9695483947
 20
978.6595166432
 30
0.0
 11
1425.9695483947
 21
978.5595166384
 31
0.0
  0
ARC
  5
ED
330
1F
100
AcDbEntity
  8
0
  6
Continuous
 62
     7
370
    15
100
AcDbCircle
 10
1424.9695603157
 20
978.659516623
 30
0.0
 40
1.0
100
AcDbArc
 50
0.0
 51
53.1301023542
  0
LINE
  5
EE
330
1F
100
AcDbEntity
  8
0
  6
Continuous
 62
     7
370
    15
100
AcDbLine
 10
1361.9695379043
 20
815.5595137858
 30
0.0
 11
1361.9695379043
 21
978.5595166384
 31
0.0
  0
ARC
  5
EF
330
1F
100
AcDbEntity
  8
0
  6
Continuous
 62
     7
370
    15
100
AcDbCircle
 10
1424.9695603157
 20
978.559516623
 30
0.0
 40
1.0
100
AcDbArc
 50
360.0
 51
64.1580672368
  0
LINE
  5
F0
330
1F
100
AcDbEntity
  8
0
  6
Continuous
 62
     7
370
    15
100
AcDbLine
 10
1424.9695612693
 20
814.5595117592
 30
0.0
 11
1393.9695431495
 21
814.5595117592
 31
0.0
  0
ARC
  5
F1
330
1F
100
AcDbEntity
  8
0
  6
Continuous
 62
     7
370
    15
100
AcDbCircle
 10
1424.9695603157
 20
815.559516623
 30
0.0
 40
1.000000000000114
100
AcDbArc
 50
270.0
 51
0.0
  0
LINE
  5
F2
330
1F
100
AcDbEntity
  8
0
  6
Continuous
 62
     7
370
    15
100
AcDbLine
 10
1393.9695431495
 20
814.5595117592
 30
0.0
 11
1362.9695846344
 21
814.5595117592
 31
0.0
  0
LINE
  5
F3
330
1F
100
AcDbEntity
  8
0
  6
Continuous
 62
     7
370
    15
100
AcDbLine
 10
1425.9695483947
 20
978.5595166384
 30
0.0
 11
1425.9695483947
 21
815.5595137858
 31
0.0
  0
ARC
  5
F4
330
1F
100
AcDbEntity
  8
0
  6
Continuous
 62
     7
370
    15
100
AcDbCircle
 10
1362.9695603157
 20
978.559516623
 30
0.0
 40
0.9999999999998379
100
AcDbArc
 50
115.8419327632
 51
180.0
  0
ARC
  5
F5
330
1F
100
AcDbEntity
  8
0
  6
Continuous
 62
     7
370
    15
100
AcDbCircle
 10
1362.9695603157
 20
815.559516623
 30
0.0
 40
1.000000000000114
100
AcDbArc
 50
180.0
 51
270.0
  0
LINE
  5
F6
330
1F
100
AcDbEntity
  8
0
  6
Continuous
 62
     7
370
    15
100
AcDbLine
 10
1416.1473585868
 20
763.4395136618
 30
0.0
 11
1371.7917873169
 21
763.4395136618
 31
0.0
  0
LINE
  5
F7
330
1F
100
AcDbEntity
  8
0
  6
Continuous
 62
     7
370
    15
100
AcDbLine
 10
1372.9695750976
 20
750.1825316929
 30
0.0
 11
1414.9695708061
 21
750.1825316929
 31
0.0
  0
LINE
  5
F8
330
1F
100
AcDbEntity
  8
0
  6
Continuous
 62
     7
370
    15
100
AcDbLine
 10
1379.4695808197
 20
186.6825147652
 30
0.0
 11
1408.469565084
 21
186.6825147652
 31
0.0
  0
LINE
  5
F9
330
1F
100
AcDbEntity
  8
0
  6
Continuous
 62
     7
370
    15
100
AcDbLine
 10
1403.6665035988
 20
122.6825638794
 30
0.0
 11
1384.272642305
 21
122.6825638794
 31
0.0
  0
LINE
  5
FA
330
1F
100
AcDbEntity
  8
0
  6
Continuous
 62
     7
370
    15
100
AcDbLine
 10
307.9695774818
 20
814.5595117592
 30
0.0
 11
276.969559362
 21
814.5595117592
 31
0.0
  0
ARC
  5
FB
330
1F
100
AcDbEntity
  8
0
  6
Continuous
 62
     7
370
    15
100
AcDbCircle
 10
276.9695603157
 20
815.559516623
 30
0.0
 40
1.000000000000114
100
AcDbArc
 50
180.0
 51
270.0
  0
ARC
  5
FC
330
1F
100
AcDbEntity
  8
0
  6
Continuous
 62
     7
370
    15
100
AcDbCircle
 10
276.9695603157
 20
978.559516623
 30
0.0
 40
1.0
100
AcDbArc
 50
115.8419327632
 51
180.0
  0
LINE
  5
FD
330
1F
100
AcDbEntity
  8
0
  6
Continuous
 62
     7
370
    15
100
AcDbLine
 10
338.969535997
 20
814.5595117592
 30
0.0
 11
307.9695774818
 21
814.5595117592
 31
0.0
  0
LINE
  5
FE
330
1F
100
AcDbEntity
  8
0
  6
Continuous
 62
     7
370
    15
100
AcDbLine
 10
339.969582727
 20
978.5595166384
 30
0.0
 11
339.969582727
 21
815.5595137858
 31
0.0
  0
LINE
  5
FF
330
1F
100
AcDbEntity
  8
0
  6
Continuous
 62
     7
370
    15
100
AcDbLine
 10
275.9695722366
 20
978.5595166384
 30
0.0
 11
275.9695722366
 21
815.5595137858
 31
0.0
  0
ARC
  5
100
330
1F
100
AcDbEntity
  8
0
  6
Continuous
 62
     7
370
    15
100
AcDbCircle
 10
338.9695603157
 20
978.559516623
 30
0.0
 40
1.0
100
AcDbArc
 50
0.0
 51
64.1580672368
  0
ARC
  5
101
330
1F
100
AcDbEntity
  8
0
  6
Continuous
 62
     7
370
    15
100
AcDbCircle
 10
338.9695603157
 20
815.559516623
 30
0.0
 40
1.000000000000114
100
AcDbArc
 50
270.0
 51
0.0
  0
LINE
  5
102
330
1F
100
AcDbEntity
  8
0
  6
Continuous
 62
     7
370
    15
100
AcDbLine
 10
330.1473333145
 20
763.4395136618
 30
0.0
 11
285.7917620445
 21
763.4395136618
 31
0.0
  0
LINE
  5
103
330
1F
100
AcDbEntity
  8
0
  6
Continuous
 62
     7
370
    15
100
AcDbLine
 10
328.9695455337
 20
750.1825316929
 30
0.0
 11
286.9695498253
 21
750.1825316929
 31
0.0
  0
LINE
  5
104
330
1F
100
AcDbEntity
  8
0
  6
Continuous
 62
     7
370
    15
100
AcDbLine
 10
322.4695398117
 20
186.6825147652
 30
0.0
 11
293.4695555473
 21
186.6825147652
 31
0.0
  0
LINE
  5
105
330
1F
100
AcDbEntity
  8
0
  6
Continuous
 62
     7
370
    15
100
AcDbLine
 10
317.6664783264
 20
122.6825638794
 30
0.0
 11
298.2726170326
 21
122.6825638794
 31
0.0
  0
LINE
  5
106
330
1F
100
AcDbEntity
  8
0
  6
Continuous
 62
     7
370
    15
100
AcDbLine
 10
1410.9695626999
 20
979.459516623
 30
0.0
 11
290.9695579315
 21
979.459516623
 31
0.0
  0
LINE
  5
107
330
1F
100
AcDbEntity
  8
0
  6
Continuous
 62
     7
370
    15
100
AcDbLine
 10
1438.9695598388
 20
979.459516623
 30
0.0
 11
1410.9695626999
 21
979.459516623
 31
0.0
  0
ARC
  5
108
330
1F
100
AcDbEntity
  8
0
  6
Continuous
 62
     7
370
    15
100
AcDbCircle
 10
1438.9695603157
 20
991.459516623
 30
0.0
 40
12.0
100
AcDbArc
 50
270.0
 51
0.0
  0
LINE
  5
109
330
1F
100
AcDbEntity
  8
0
  6
Continuous
 62
     7
370
    15
100
AcDbLine
 10
262.9695607925
 20
1004.4595169955
 30
0.0
 11
290.9695579315
 21
1004.4595169955
 31
0.0
  0
ARC
  5
10A
330
1F
100
AcDbEntity
  8
0
  6
Continuous
 62
     7
370
    15
100
AcDbCircle
 10
262.9695603157
 20
992.459516623
 30
0.0
 40
12.00000000000011
100
AcDbArc
 50
90.0
 51
180.0
  0
LINE
  5
10B
330
1F
100
AcDbEntity
  8
0
  6
Continuous
 62
     7
370
    15
100
AcDbLine
 10
1405.9695674682
 20
1004.4595169955
 30
0.0
 11
1410.9695626999
 21
1004.4595169955
 31
0.0
  0
LINE
  5
10C
330
1F
100
AcDbEntity
  8
0
  6
Continuous
 62
     7
370
    15
100
AcDbLine
 10
290.9695579315
 20
1004.4595169955
 30
0.0
 11
295.9695531631
 21
1004.4595169955
 31
0.0
  0
LINE
  5
10D
330
1F
100
AcDbEntity
  8
0
  6
Continuous
 62
     7
370
    15
100
AcDbLine
 10
1405.9695674682
 20
1004.4595169955
 30
0.0
 11
295.9695531631
 21
1004.4595169955
 31
0.0
  0
LINE
  5
10E
330
1F
100
AcDbEntity
  8
0
  6
Continuous
 62
     7
370
    15
100
AcDbLine
 10
250.9695364738
 20
991.4595167273
 30
0.0
 11
250.9695364738
 21
992.4595168912
 31
0.0
  0
LINE
  5
10F
330
1F
100
AcDbEntity
  8
0
  6
Continuous
 62
     7
370
    15
100
AcDbLine
 10
290.9695579315
 20
979.459516623
 30
0.0
 11
262.9695607925
 21
979.459516623
 31
0.0
  0
ARC
  5
110
330
1F
100
AcDbEntity
  8
0
  6
Continuous
 62
     7
370
    15
100
AcDbCircle
 10
262.9695603157
 20
991.459516623
 30
0.0
 40
12.00000000000003
100
AcDbArc
 50
180.0
 51
270.0
  0
LINE
  5
111
330
1F
100
AcDbEntity
  8
0
  6
Continuous
 62
     7
370
    15
100
AcDbLine
 10
1450.9695841575
 20
992.4595168912
 30
0.0
 11
1450.9695841575
 21
991.4595167273
 31
0.0
  0
LINE
  5
112
330
1F
100
AcDbEntity
  8
0
  6
Continuous
 62
     7
370
    15
100
AcDbLine
 10
1410.9695626999
 20
1004.4595169955
 30
0.0
 11
1438.9695598388
 21
1004.4595169955
 31
0.0
  0
ARC
  5
113
330
1F
100
AcDbEntity
  8
0
  6
Continuous
 62
     7
370
    15
100
AcDbCircle
 10
1438.9695603157
 20
992.459516623
 30
0.0
 40
12.00000000000011
100
AcDbArc
 50
0.0
 51
90.0
  0
ARC
  5
114
330
1F
100
AcDbEntity
  8
0
  6
Continuous
 62
     7
370
    15
100
AcDbCircle
 10
1438.9695603157
 20
1017.459516623
 30
0.0
 40
13.0000000000001
100
AcDbArc
 50
183.5833216985
 51
270.0
  0
ARC
  5
115
330
1F
100
AcDbEntity
  8
0
  6
Continuous
 62
     7
370
    15
100
AcDbCircle
 10
262.9695603157
 20
1017.459516623
 30
0.0
 40
13.00000000000005
100
AcDbArc
 50
270.0
 51
356.4166783015
  0
LINE
  5
116
330
1F
100
AcDbEntity
  8
0
  6
Continuous
 62
     7
370
    15
100
AcDbLine
 10
278.9383007789
 20
1019.4595157289
 30
0.0
 11
295.9695531631
 21
1019.4595157289
 31
0.0
  0
ARC
  5
117
330
1F
100
AcDbEntity
  8
0
  6
Continuous
 62
     7
370
    15
100
AcDbCircle
 10
278.9382797383
 20
1016.459516623
 30
0.0
 40
2.999999999999947
100
AcDbArc
 50
90.0
 51
176.4166783015
  0
LINE
  5
118
330
1F
100
AcDbEntity
  8
0
  6
Continuous
 62
     7
370
    15
100
AcDbLine
 10
295.9695531631
 20
1019.4595157289
 30
0.0
 11
1405.9695674682
 21
1019.4595157289
 31
0.0
  0
LINE
  5
119
330
1F
100
AcDbEntity
  8
0
  6
Continuous
 62
     7
370
    15
100
AcDbLine
 10
1405.9695674682
 20
1019.4595157289
 30
0.0
 11
1423.0008198524
 21
1019.4595157289
 31
0.0
  0
ARC
  5
11A
330
1F
100
AcDbEntity
  8
0
  6
Continuous
 62
     7
370
    15
100
AcDbCircle
 10
1423.000840893
 20
1016.459516623
 30
0.0
 40
2.999999999999886
100
AcDbArc
 50
3.5833216985
 51
90.0
  0
LINE
  5
11B
330
1F
100
AcDbEntity
  8
0
  6
Continuous
 62
     7
370
    15
100
AcDbLine
 10
340.1695563102
 20
819.559521892
 30
0.0
 11
339.969582727
 21
819.559521892
 31
0.0
  0
LINE
  5
11C
330
1F
100
AcDbEntity
  8
0
  6
Continuous
 62
     7
370
    15
100
AcDbLine
 10
1361.7695643211
 20
819.559521892
 30
0.0
 11
1361.9695379043
 21
819.559521892
 31
0.0
  0
LINE
  5
11D
330
1F
100
AcDbEntity
  8
0
  6
Continuous
 62
     7
370
    15
100
AcDbLine
 10
1361.7695643211
 20
815.3595104002
 30
0.0
 11
1361.7695643211
 21
819.559521892
 31
0.0
  0
LINE
  5
11E
330
1F
100
AcDbEntity
  8
0
  6
Continuous
 62
     7
370
    15
100
AcDbLine
 10
340.1695563102
 20
815.3595104002
 30
0.0
 11
340.1695563102
 21
819.559521892
 31
0.0
  0
LINE
  5
11F
330
1F
100
AcDbEntity
  8
0
  6
Continuous
 62
     7
370
    15
100
AcDbLine
 10
1361.7695643211
 20
814.3595232748
 30
0.0
 11
340.1695563102
 21
814.3595232748
 31
0.0
  0
LINE
  5
120
330
1F
100
AcDbEntity
  8
0
  6
Continuous
 62
     7
370
    15
100
AcDbLine
 10
340.1695563102
 20
814.3595232748
 30
0.0
 11
340.1695563102
 21
815.3595104002
 31
0.0
  0
LINE
  5
121
330
1F
100
AcDbEntity
  8
0
  6
Continuous
 62
     7
370
    15
100
AcDbLine
 10
1361.7695643211
 20
815.3595104002
 30
0.0
 11
1361.7695643211
 21
814.3595232748
 31
0.0
  0
ARC
  5
122
330
1F
100
AcDbEntity
  8
0
  6
Continuous
 62
     7
370
    15
100
AcDbCircle
 10
367.9695603157
 20
843.359516623
 30
0.0
 40
1.0
100
AcDbArc
 50
180.0
 51
270.0
  0
LINE
  5
123
330
1F
100
AcDbEntity
  8
0
  6
Continuous
 62
     7
370
    15
100
AcDbLine
 10
1334.9695576931
 20
843.3595224404
 30
0.0
 11
1334.9695576931
 21
950.4595174574
 31
0.0
  0
ARC
  5
124
330
1F
100
AcDbEntity
  8
0
  6
Continuous
 62
     7
370
    15
100
AcDbCircle
 10
1333.9695603157
 20
950.459516623
 30
0.0
 40
1.0
100
AcDbArc
 50
0.0
 51
90.0
  0
ARC
  5
125
330
1F
100
AcDbEntity
  8
0
  6
Continuous
 62
     7
370
    15
100
AcDbCircle
 10
367.9695603157
 20
950.459516623
 30
0.0
 40
1.0
100
AcDbArc
 50
90.0
 51
180.0
  0
LINE
  5
126
330
1F
100
AcDbEntity
  8
0
  6
Continuous
 62
     7
370
    15
100
AcDbLine
 10
366.9695629383
 20
950.4595174574
 30
0.0
 11
366.9695629383
 21
843.3595224404
 31
0.0
  0
LINE
  5
127
330
1F
100
AcDbEntity
  8
0
  6
Continuous
 62
     7
370
    15
100
AcDbLine
 10
1333.9695705677
 20
951.4595157587
 30
0.0
 11
367.9695500637
 21
951.4595157587
 31
0.0
  0
ARC
  5
128
330
1F
100
AcDbEntity
  8
0
  6
Continuous
 62
     7
370
    15
100
AcDbCircle
 10
1333.9695603157
 20
843.359516623
 30
0.0
 40
1.0
100
AcDbArc
 50
270.0
 51
0.0
  0
LINE
  5
129
330
1F
100
AcDbEntity
  8
0
  6
Continuous
 62
     7
370
    15
100
AcDbLine
 10
367.9695500637
 20
842.3595204138
 30
0.0
 11
1333.9695705677
 21
842.3595204138
 31
0.0
  0
SPLINE
  5
12A
330
1F
100
AcDbEntity
  8
0
  6
PHANTOM
 62
     8
370
     0
100
AcDbSpline
210
0.0
220
0.0
230
1.0
 70
    24
 71
     3
 72
    13
 73
     9
 74
     0
 42
0.000000001
 43
0.00000001
 40
0.0
 40
0.0
 40
0.0
 40
0.0
 40
0.16108473969076
 40
0.3288257967031663
 40
0.4962847493494345
 40
0.664345693761228
 40
0.8324633776905966
 40
0.9999999999999999
 40
0.9999999999999999
 40
0.9999999999999999
 40
0.9999999999999999
 10
833.9695593917985
 20
814.3595232748353
 30
0.0
 10
833.9695593917985
 20
811.343521473627
 30
0.0
 10
833.9695593917985
 20
805.1868911370452
 30
0.0
 10
833.9695593917985
 20
797.2191381941
 30
0.0
 10
833.9695593917985
 20
790.2417059639215
 30
0.0
 10
833.9695593917985
 20
784.5079941655694
 30
0.0
 10
833.9695593917985
 20
779.8743115092008
 30
0.0
 10
833.9695593917985
 20
777.810664746532
 30
0.0
 10
833.9695593917985
 20
776.7806275867783
 30
0.0
  0
SPLINE
  5
12B
330
1F
100
AcDbEntity
  8
0
  6
PHANTOM
 62
     8
370
     0
100
AcDbSpline
210
0.0
220
0.0
230
1.0
 70
    24
 71
     3
 72
    13
 73
     9
 74
     0
 42
0.000000001
 43
0.00000001
 40
0.0
 40
0.0
 40
0.0
 40
0.0
 40
0.1675366223094033
 40
0.335654306238772
 40
0.5037152506505654
 40
0.6711742032968336
 40
0.8389152603092399
 40
0.9999999999999999
 40
0.9999999999999999
 40
0.9999999999999999
 40
0.9999999999999999
 10
867.9695612395425
 20
776.7806275867783
 30
0.0
 10
867.9695612395425
 20
777.810664746532
 30
0.0
 10
867.9695612395425
 20
779.8743115092008
 30
0.0
 10
867.9695612395425
 20
784.5079941655692
 30
0.0
 10
867.9695612395425
 20
790.2417059639217
 30
0.0
 10
867.9695612395425
 20
797.2191381940999
 30
0.0
 10
867.9695612395425
 20
805.1868911370453
 30
0.0
 10
867.9695612395425
 20
811.3435214736271
 30
0.0
 10
867.9695612395425
 20
814.3595232748353
 30
0.0
  0
LINE
  5
12C
330
1F
100
AcDbEntity
  8
0
  6
PHANTOM
 62
     8
370
     0
100
AcDbLine
 10
867.9695612395
 20
776.7806275868
 30
0.0
 11
833.9695593918
 21
776.7806275868
 31
0.0
  0
ARC
  5
12D
330
1F
100
AcDbEntity
  8
0
  6
PHANTOM
 62
     8
370
     0
100
AcDbCircle
 10
867.9934459973
 20
779.7567447094
 30
0.0
 40
2.976212964366772
100
AcDbArc
 50
269.5401839456
 51
359.5324497127
  0
ARC
  5
12E
330
1F
100
AcDbEntity
  8
0
  6
PHANTOM
 62
     8
370
     0
100
AcDbCircle
 10
833.9456746341
 20
779.7567447094
 30
0.0
 40
2.976212964366678
100
AcDbArc
 50
180.4675502873
 51
270.4598160545
  0
SPLINE
  5
12F
330
1F
100
AcDbEntity
  8
0
  6
PHANTOM
 62
     8
370
     0
100
AcDbSpline
210
0.0
220
0.0
230
1.0
 70
     8
 71
     3
 72
    13
 73
     9
 74
     0
 42
0.000000001
 43
0.00000001
 40
0.0
 40
0.0
 40
0.0
 40
0.0
 40
0.0143577088009484
 40
0.2531683067398467
 40
0.4381871854140165
 40
0.6232060797228962
 40
0.8116030447236249
 40
1.0
 40
1.0
 40
1.0
 40
1.0
 10
873.636625578465
 20
814.3595232748353
 30
0.0
 10
873.6365667019522
 20
814.2205863601503
 30
0.0
 10
873.6355285372106
 20
811.7707230900342
 30
0.0
 10
873.6345608908616
 20
808.3860548686121
 30
0.0
 10
873.6335134142543
 20
804.1345903501299
 30
0.0
 10
873.6331804214556
 20
800.9921488346969
 30
0.0
 10
873.6333194081051
 20
798.4532931765815
 30
0.0
 10
873.6339266139089
 20
797.3586343196777
 30
0.0
 10
873.6342302168031
 20
796.8113049053513
 30
0.0
  0
ARC
  5
130
330
1F
100
AcDbEntity
  8
0
  6
PHANTOM
 62
     8
370
     0
100
AcDbCircle
 10
873.9526739179
 20
793.8452142699
 30
0.0
 40
2.983135941962025
100
AcDbArc
 50
96.1278838586
 51
179.7804917364
  0
ARC
  5
131
330
1F
100
AcDbEntity
  8
0
  6
PHANTOM
 62
     8
370
     0
100
AcDbCircle
 10
827.9864487187
 20
793.8452162791
 30
0.0
 40
2.98313392905542
100
AcDbArc
 50
0.2194698222
 51
83.8721147449
  0
SPLINE
  5
132
330
1F
100
AcDbEntity
  8
0
  6
PHANTOM
 62
     8
370
     0
100
AcDbSpline
210
0.0
220
0.0
230
1.0
 70
     8
 71
     3
 72
    13
 73
     9
 74
     0
 42
0.000000001
 43
0.00000001
 40
0.0
 40
0.0
 40
0.0
 40
0.0
 40
0.1051990298508517
 40
0.3157099077171329
 40
0.5274339843369186
 40
0.7385506999547495
 40
0.9496675688551803
 40
1.0
 40
1.0
 40
1.0
 40
1.0
 10
828.3048922771831
 20
796.8113049053513
 30
0.0
 10
828.305074902304
 20
797.1002016023589
 30
0.0
 10
828.3056229735189
 20
797.9672015136827
 30
0.0
 10
828.3059741972423
 20
800.0831988868165
 30
0.0
 10
828.3057393169962
 20
803.4463380592463
 30
0.0
 10
828.3047509139274
 20
807.7621434218718
 30
0.0
 10
828.3036713619014
 20
811.4145710041288
 30
0.0
 10
828.3026646447835
 20
813.8841054021319
 30
0.0
 10
828.3024708384891
 20
814.3595232748353
 30
0.0
  0
LWPOLYLINE
  5
133
330
1F
100
AcDbEntity
  8
0
  6
PHANTOM
 62
     8
370
     0
100
AcDbPolyline
 90
       11
 70
   128
 43
0.0
 10
898.4748198295
 20
814.3595232748
 10
898.3598834479
 20
814.0703066372
 10
896.953236183
 20
810.7524140858
 10
895.5158068443
 20
807.7660276675
 10
894.0508662367
 20
805.117972114
 10
892.5617484952
 20
802.8142525935
 10
891.0518436337
 20
800.8601292157
 10
889.5245826448
 20
799.2600127243
 10
887.9834449495
 20
798.0175837063
 10
886.4319323207
 20
797.1356435799
 10
884.8735800589
 20
796.616218903
  0
SPLINE
  5
134
330
1F
100
AcDbEntity
  8
0
  6
PHANTOM
 62
     8
370
     0
100
AcDbSpline
210
0.0
220
0.0
230
1.0
 70
     8
 71
     3
 72
    11
 73
     7
 74
     0
 42
0.000000001
 43
0.00000001
 40
0.0
 40
0.0
 40
0.0
 40
0.0
 40
0.2971657585603646
 40
0.6040380261758181
 40
0.8011287049325001
 40
1.0
 40
1.0
 40
1.0
 40
1.0
 10
873.6342302168031
 20
796.8113049053513
 30
0.0
 10
875.142383287061
 20
796.807184956378
 30
0.0
 10
878.2079511645406
 20
796.7988104859887
 30
0.0
 10
881.2984408849724
 20
796.7710828345333
 30
0.0
 10
883.4694998034878
 20
796.7351131171557
 30
0.0
 10
884.404152282436
 20
796.6559689431917
 30
0.0
 10
884.8735800588746
 20
796.6162189030015
 30
0.0
  0
SPLINE
  5
135
330
1F
100
AcDbEntity
  8
0
  6
PHANTOM
 62
     8
370
     0
100
AcDbSpline
210
0.0
220
0.0
230
1.0
 70
     8
 71
     3
 72
    11
 73
     7
 74
     0
 42
0.000000001
 43
0.00000001
 40
0.0
 40
0.0
 40
0.0
 40
0.0
 40
0.307318296855866
 40
0.6220091833058797
 40
0.8098079572924716
 40
1.0
 40
1.0
 40
1.0
 40
1.0
 10
817.0655256713052
 20
796.6162189030015
 30
0.0
 10
817.8143171042287
 20
796.6680182420421
 30
0.0
 10
819.329863534182
 20
796.7728595902533
 30
0.0
 10
822.3082575633973
 20
796.7858067363675
 30
0.0
 10
825.3749206266098
 20
796.8037949433219
 30
0.0
 10
827.3241212382882
 20
796.8087910403246
 30
0.0
 10
828.3048922771831
 20
796.8113049053513
 30
0.0
  0
LWPOLYLINE
  5
136
330
1F
100
AcDbEntity
  8
0
  6
PHANTOM
 62
     8
370
     0
100
AcDbPolyline
 90
       11
 70
   128
 43
0.0
 10
803.4640810097
 20
814.3595232748
 10
803.5790211166
 20
814.0702917361
 10
804.9856907333
 20
810.7523991846
 10
806.4231424237
 20
807.7660276675
 10
807.8881016577
 20
805.1179572129
 10
809.377241751
 20
802.8142525935
 10
810.8871726895
 20
800.8601143145
 10
812.4144523049
 20
799.2600127243
 10
813.9556160772
 20
798.0175837063
 10
815.5071510578
 20
797.1356435799
 10
817.0655256713
 20
796.616218903
  0
SPLINE
  5
137
330
1F
100
AcDbEntity
  8
0
  6
PHANTOM
 62
     8
370
     0
100
AcDbSpline
210
0.0
220
0.0
230
1.0
 70
     8
 71
     3
 72
    14
 73
    10
 74
     0
 42
0.000000001
 43
0.00000001
 40
0.0
 40
0.0
 40
0.0
 40
0.0
 40
0.0370786623542259
 40
0.1973822730979834
 40
0.3588608506464374
 40
0.5192492767487807
 40
0.6789912154763559
 40
0.8389671172492686
 40
1.0
 40
1.0
 40
1.0
 40
1.0
 10
936.8074088001866
 20
814.3595232748353
 30
0.0
 10
936.2864632733583
 20
813.8939145174622
 30
0.0
 10
933.5132938622487
 20
811.4153214650315
 30
0.0
 10
928.2066711093755
 20
807.7914325714336
 30
0.0
 10
920.9466764816186
 20
803.5762991213069
 30
0.0
 10
913.5031546247973
 20
800.3740407555892
 30
0.0
 10
905.9661886765386
 20
798.112258530184
 30
0.0
 10
898.3382357922516
 20
796.7144505437532
 30
0.0
 10
893.2198657218553
 20
796.5446820406066
 30
0.0
 10
890.652254095139
 20
796.459518291887
 30
0.0
  0
SPLINE
  5
138
330
1F
100
AcDbEntity
  8
0
  6
PHANTOM
 62
     8
370
     0
100
AcDbSpline
210
0.0
220
0.0
230
1.0
 70
     8
 71
     3
 72
     9
 73
     5
 74
     0
 42
0.000000001
 43
0.00000001
 40
0.0
 40
0.0
 40
0.0
 40
0.0
 40
0.4970047637181606
 40
1.0
 40
1.0
 40
1.0
 40
1.0
 10
884.8735800588746
 20
796.6162189030015
 30
0.0
 10
885.1552325821738
 20
796.5714871752773
 30
0.0
 10
885.7219324286543
 20
796.4814845616411
 30
0.0
 10
885.885590786637
 20
796.4668695653831
 30
0.0
 10
885.9679101610799
 20
796.459518291887
 30
0.0
  0
SPLINE
  5
139
330
1F
100
AcDbEntity
  8
0
  6
PHANTOM
 62
     8
370
     0
100
AcDbSpline
210
0.0
220
0.0
230
1.0
 70
     8
 71
     3
 72
    14
 73
    10
 74
     0
 42
0.000000001
 43
0.00000001
 40
0.0
 40
0.0
 40
0.0
 40
0.0
 40
0.1610950914765975
 40
0.321131475842905
 40
0.480935118298087
 40
0.6413882944489797
 40
0.8029285240316869
 40
0.9632905023477599
 40
1.0
 40
1.0
 40
1.0
 40
1.0
 10
811.2868106568475
 20
796.459518291887
 30
0.0
 10
808.7299170066862
 20
796.5448395139125
 30
0.0
 10
803.6329334553969
 20
796.7149212320992
 30
0.0
 10
796.036971169407
 20
798.1147246450367
 30
0.0
 10
788.531795451113
 20
800.3791192256725
 30
0.0
 10
781.1198799419284
 20
803.5843110523263
 30
0.0
 10
773.8911158144579
 20
807.8026136996293
 30
0.0
 10
768.6129537684744
 20
811.4241257758456
 30
0.0
 10
765.857208570039
 20
813.8985919769254
 30
0.0
 10
765.343882014813
 20
814.3595232748353
 30
0.0
  0
SPLINE
  5
13A
330
1F
100
AcDbEntity
  8
0
  6
PHANTOM
 62
     8
370
     0
100
AcDbSpline
210
0.0
220
0.0
230
1.0
 70
     8
 71
     3
 72
     9
 73
     5
 74
     0
 42
0.000000001
 43
0.00000001
 40
0.0
 40
0.0
 40
0.0
 40
0.0
 40
0.4969940035033324
 40
0.9999999999999999
 40
0.9999999999999999
 40
0.9999999999999999
 40
0.9999999999999999
 10
815.9712067449708
 20
796.459518291887
 30
0.0
 10
816.0521328463373
 20
796.4667002904686
 30
0.0
 10
816.2149639887574
 20
796.4811511661957
 30
0.0
 10
816.7808710340588
 20
796.5710162346788
 30
0.0
 10
817.0655256713052
 20
796.6162189030015
 30
0.0
  0
ARC
  5
13B
330
1F
100
AcDbEntity
  8
0
  6
PHANTOM
 62
     8
370
     0
100
AcDbCircle
 10
867.9778034033
 20
778.7179631193
 30
0.0
 40
2.991767953118215
100
AcDbArc
 50
269.8421529333
 51
359.8412213183
  0
LINE
  5
13C
330
1F
100
AcDbEntity
  8
0
  6
PHANTOM
 62
     8
370
     0
100
AcDbLine
 10
867.9695612395
 20
775.7262065195
 30
0.0
 11
867.9695612395
 21
776.7806275868
 31
0.0
  0
LINE
  5
13D
330
1F
100
AcDbEntity
  8
0
  6
PHANTOM
 62
     8
370
     0
100
AcDbLine
 10
833.9695593918
 20
776.7806275868
 30
0.0
 11
833.9695593918
 21
775.7262065195
 31
0.0
  0
ARC
  5
13E
330
1F
100
AcDbEntity
  8
0
  6
PHANTOM
 62
     8
370
     0
100
AcDbCircle
 10
833.961317228
 20
778.7179631193
 30
0.0
 40
2.991767953118102
100
AcDbArc
 50
180.1587786817
 51
270.1578470667
  0
LINE
  5
13F
330
1F
100
AcDbEntity
  8
0
  6
PHANTOM
 62
     8
370
     0
100
AcDbLine
 10
862.8651731292
 20
775.7262065195
 30
0.0
 11
867.9695612395
 21
775.7262065195
 31
0.0
  0
SPLINE
  5
140
330
1F
100
AcDbEntity
  8
0
  6
PHANTOM
 62
     8
370
     0
100
AcDbSpline
210
0.0
220
0.0
230
1.0
 70
     8
 71
     3
 72
    12
 73
     8
 74
     0
 42
0.000000001
 43
0.00000001
 40
0.0
 40
0.0
 40
0.0
 40
0.0
 40
0.1531063111722983
 40
0.3621093535941799
 40
0.5768766637910786
 40
0.7855772558690733
 40
1.0
 40
1.0
 40
1.0
 40
1.0
 10
839.0739475021381
 20
775.7262065195405
 30
0.0
 10
840.2424512037874
 20
775.7732463237792
 30
0.0
 10
843.0060611218687
 20
775.8844994326528
 30
0.0
 10
847.6458627195043
 20
775.9937014597185
 30
0.0
 10
852.7979709554824
 20
776.0096500228348
 30
0.0
 10
857.9707314531577
 20
775.9184108833674
 30
0.0
 10
861.2190495821693
 20
775.7908496698893
 30
0.0
 10
862.8651731292028
 20
775.7262065195405
 30
0.0
  0
LINE
  5
141
330
1F
100
AcDbEntity
  8
0
  6
PHANTOM
 62
     8
370
     0
100
AcDbLine
 10
833.9695593918
 20
775.7262065195
 30
0.0
 11
839.0739475021
 21
775.7262065195
 31
0.0
  0
SPLINE
  5
142
330
1F
100
AcDbEntity
  8
0
  6
PHANTOM
 62
     8
370
     0
100
AcDbSpline
210
0.0
220
0.0
230
1.0
 70
     8
 71
     3
 72
    12
 73
     8
 74
     0
 42
0.000000001
 43
0.00000001
 40
0.0
 40
0.0
 40
0.0
 40
0.0
 40
0.2086007950383296
 40
0.4232344255703219
 40
0.6318479570594961
 40
0.8466247700725044
 40
1.0
 40
1.0
 40
1.0
 40
1.0
 10
861.7446449229736
 20
773.2636853241288
 30
0.0
 10
860.2980128607172
 20
773.3284800096445
 30
0.0
 10
857.3629114399954
 20
773.4599432741983
 30
0.0
 10
852.7151617255042
 20
773.5549318811023
 30
0.0
 10
848.0000724808883
 20
773.5399197197488
 30
0.0
 10
843.7910695375618
 20
773.4283952155259
 30
0.0
 10
841.2521929826243
 20
773.3121246268817
 30
0.0
 10
840.1944757083673
 20
773.2636853241288
 30
0.0
  0
ARC
  5
143
330
1F
100
AcDbEntity
  8
0
  6
PHANTOM
 62
     8
370
     0
100
AcDbCircle
 10
837.3147596805
 20
773.4395189434
 30
0.0
 40
2.885079177936024
100
AcDbArc
 50
356.5058943266
 51
52.4283010385
  0
ARC
  5
144
330
1F
100
AcDbEntity
  8
0
  6
PHANTOM
 62
     8
370
     0
100
AcDbCircle
 10
864.6243609509
 20
773.4395189434
 30
0.0
 40
2.885079177936094
100
AcDbArc
 50
127.5716989615
 51
183.4941056734
  0
LINE
  5
145
330
1F
100
AcDbEntity
  8
0
  6
PHANTOM
 62
     8
370
     0
100
AcDbLine
 10
866.3670885021
 20
773.1386049771
 30
0.0
 11
861.744644923
 21
773.2636853241
 31
0.0
  0
SPLINE
  5
146
330
1F
100
AcDbEntity
  8
0
  6
PHANTOM
 62
     8
370
     0
100
AcDbSpline
210
0.0
220
0.0
230
1.0
 70
     8
 71
     3
 72
    13
 73
     9
 74
     0
 42
0.000000001
 43
0.00000001
 40
0.0
 40
0.0
 40
0.0
 40
0.0
 40
0.114254177972295
 40
0.3333340438561635
 40
0.5251289667076606
 40
0.6875469748488737
 40
0.8426604018862508
 40
0.9999999999999999
 40
0.9999999999999999
 40
0.9999999999999999
 40
0.9999999999999999
 10
866.367088502111
 20
773.1386049770676
 30
0.0
 10
866.6878226339064
 20
773.1624046735374
 30
0.0
 10
867.6235573882191
 20
773.231839762981
 30
0.0
 10
869.0181364379603
 20
773.8868109871795
 30
0.0
 10
870.2959973569197
 20
775.0861966671279
 30
0.0
 10
871.1716971717683
 20
776.4786408521809
 30
0.0
 10
871.7471724199996
 20
777.9837640607158
 30
0.0
 10
871.8334494366529
 20
779.0200120986341
 30
0.0
 10
871.8768952990193
 20
779.5418276571595
 30
0.0
  0
SPLINE
  5
147
330
1F
100
AcDbEntity
  8
0
  6
PHANTOM
 62
     8
370
     0
100
AcDbSpline
210
0.0
220
0.0
230
1.0
 70
     8
 71
     3
 72
     9
 73
     5
 74
     0
 42
0.000000001
 43
0.00000001
 40
0.0
 40
0.0
 40
0.0
 40
0.0
 40
0.525077396783558
 40
1.0
 40
1.0
 40
1.0
 40
1.0
 10
872.0329141820092
 20
794.3775876545274
 30
0.0
 10
872.0071393322796
 20
791.7781304205735
 30
0.0
 10
871.9580516170446
 20
786.8275131403832
 30
0.0
 10
871.9030274972376
 20
781.8878061568877
 30
0.0
 10
871.8768952990193
 20
779.5418276571595
 30
0.0
  0
SPLINE
  5
148
330
1F
100
AcDbEntity
  8
0
  6
PHANTOM
 62
     8
370
     0
100
AcDbSpline
210
0.0
220
0.0
230
1.0
 70
     8
 71
     3
 72
    11
 73
     7
 74
     0
 42
0.000000001
 43
0.00000001
 40
0.0
 40
0.0
 40
0.0
 40
0.0
 40
0.2707068791504786
 40
0.5494473108703165
 40
0.7726268692655852
 40
0.9999999999999999
 40
0.9999999999999999
 40
0.9999999999999999
 40
0.9999999999999999
 10
882.0402583683152
 20
794.1400929474198
 30
0.0
 10
881.5328191122462
 20
794.19520257019
 30
0.0
 10
880.5028817292284
 20
794.3070572601376
 30
0.0
 10
878.0502709075181
 20
794.338228057611
 30
0.0
 10
875.225356922741
 20
794.3651900083208
 30
0.0
 10
873.1036444586582
 20
794.3734295423134
 30
0.0
 10
872.0329141820092
 20
794.3775876545274
 30
0.0
  0
SPLINE
  5
149
330
1F
100
AcDbEntity
  8
0
  6
PHANTOM
 62
     8
370
     0
100
AcDbSpline
210
0.0
220
0.0
230
1.0
 70
     8
 71
     3
 72
     9
 73
     5
 74
     0
 42
0.000000001
 43
0.00000001
 40
0.0
 40
0.0
 40
0.0
 40
0.0
 40
0.4970594034157245
 40
1.0
 40
1.0
 40
1.0
 40
1.0
 10
883.0150886083264
 20
793.9804568075501
 30
0.0
 10
882.945746104686
 20
793.9877588039616
 30
0.0
 10
882.8062406388123
 20
794.0024491938049
 30
0.0
 10
882.2965849197254
 20
794.094032157182
 30
0.0
 10
882.0402583683152
 20
794.1400929474198
 30
0.0
  0
LINE
  5
14A
330
1F
100
AcDbEntity
  8
0
  6
PHANTOM
 62
     8
370
     0
100
AcDbLine
 10
883.0150886083
 20
793.9804568076
 30
0.0
 11
883.0324372852
 21
793.9804568076
 31
0.0
  0
LINE
  5
14B
330
1F
100
AcDbEntity
  8
0
  6
PHANTOM
 62
     8
370
     0
100
AcDbLine
 10
818.924032023
 20
793.9804568076
 30
0.0
 11
818.9066833461
 21
793.9804568076
 31
0.0
  0
SPLINE
  5
14C
330
1F
100
AcDbEntity
  8
0
  6
PHANTOM
 62
     8
370
     0
100
AcDbSpline
210
0.0
220
0.0
230
1.0
 70
     8
 71
     3
 72
     9
 73
     5
 74
     0
 42
0.000000001
 43
0.00000001
 40
0.0
 40
0.0
 40
0.0
 40
0.0
 40
0.4970635283141622
 40
1.0
 40
1.0
 40
1.0
 40
1.0
 10
819.8988492245097
 20
794.1400929474198
 30
0.0
 10
819.6451668391812
 20
794.0945032343307
 30
0.0
 10
819.1348047408213
 20
794.0027851530547
 30
0.0
 10
818.9945641373245
 20
793.98792867314
 30
0.0
 10
818.9240320230145
 20
793.9804568075501
 30
0.0
  0
SPLINE
  5
14D
330
1F
100
AcDbEntity
  8
0
  6
PHANTOM
 62
     8
370
     0
100
AcDbSpline
210
0.0
220
0.0
230
1.0
 70
     8
 71
     3
 72
    11
 73
     7
 74
     0
 42
0.000000001
 43
0.00000001
 40
0.0
 40
0.0
 40
0.0
 40
0.0
 40
0.2231832398809978
 40
0.450554564732481
 40
0.7213448171009978
 40
1.0
 40
1.0
 40
1.0
 40
1.0
 10
829.9062064493318
 20
794.3775876545274
 30
0.0
 10
828.8546448377264
 20
794.3735048172798
 30
0.0
 10
826.7317888183459
 20
794.3652625274019
 30
0.0
 10
823.9329367255957
 20
794.3387447993559
 30
0.0
 10
821.4578829670851
 20
794.3072413925946
 30
0.0
 10
820.4234628078747
 20
794.1963382629524
 30
0.0
 10
819.8988492245097
 20
794.1400929474198
 30
0.0
  0
SPLINE
  5
14E
330
1F
100
AcDbEntity
  8
0
  6
PHANTOM
 62
     8
370
     0
100
AcDbSpline
210
0.0
220
0.0
230
1.0
 70
     8
 71
     3
 72
     9
 73
     5
 74
     0
 42
0.000000001
 43
0.00000001
 40
0.0
 40
0.0
 40
0.0
 40
0.0
 40
0.474922603216442
 40
1.0
 40
1.0
 40
1.0
 40
1.0
 10
830.0622253323216
 20
779.5418276571595
 30
0.0
 10
830.0360931341033
 20
781.8878061568877
 30
0.0
 10
829.9810690142965
 20
786.8275131403832
 30
0.0
 10
829.9319812990615
 20
791.7781304205735
 30
0.0
 10
829.9062064493318
 20
794.3775876545274
 30
0.0
  0
SPLINE
  5
14F
330
1F
100
AcDbEntity
  8
0
  6
PHANTOM
 62
     8
370
     0
100
AcDbSpline
210
0.0
220
0.0
230
1.0
 70
     8
 71
     3
 72
    13
 73
     9
 74
     0
 42
0.000000001
 43
0.00000001
 40
0.0
 40
0.0
 40
0.0
 40
0.0
 40
0.1291566229523528
 40
0.2886296098733279
 40
0.4787195009624631
 40
0.7208428842391437
 40
0.9368851919429639
 40
0.9999999999999999
 40
0.9999999999999999
 40
0.9999999999999999
 40
0.9999999999999999
 10
830.0622253323216
 20
779.5418276571595
 30
0.0
 10
830.0924722221953
 20
779.1155024192116
 30
0.0
 10
830.1600657208834
 20
778.1627825021426
 30
0.0
 10
830.6860249049857
 20
776.6195859316888
 30
0.0
 10
831.6881292393862
 20
774.9783513100695
 30
0.0
 10
833.188073472403
 20
773.685795804028
 30
0.0
 10
834.6116560001135
 20
773.1826737833878
 30
0.0
 10
835.3949391489598
 20
773.1467312476105
 30
0.0
 10
835.57203212923
 20
773.1386049770676
 30
0.0
  0
LINE
  5
150
330
1F
100
AcDbEntity
  8
0
  6
PHANTOM
 62
     8
370
     0
100
AcDbLine
 10
840.1944757084
 20
773.2636853241
 30
0.0
 11
835.5720321292
 21
773.1386049771
 31
0.0
  0
LINE
  5
151
330
1F
100
AcDbEntity
  8
0
  6
PHANTOM
 62
     8
370
     0
100
AcDbLine
 10
850.9695603157
 20
766.938574531
 30
0.0
 11
878.2642221654
 21
766.938574531
 31
0.0
  0
LINE
  5
152
330
1F
100
AcDbEntity
  8
0
  6
PHANTOM
 62
     8
370
     0
100
AcDbLine
 10
823.6748984659
 20
766.938574531
 30
0.0
 11
850.9695603157
 21
766.938574531
 31
0.0
  0
LINE
  5
153
330
1F
100
AcDbEntity
  8
0
  6
PHANTOM
 62
     8
370
     0
100
AcDbLine
 10
867.9695612395
 20
775.6159826302
 30
0.0
 11
867.9695612395
 21
775.7262065195
 31
0.0
  0
LINE
  5
154
330
1F
100
AcDbEntity
  8
0
  6
PHANTOM
 62
     8
370
     0
100
AcDbLine
 10
833.9695593918
 20
775.7262065195
 30
0.0
 11
833.9695593918
 21
775.6159826302
 31
0.0
  0
LWPOLYLINE
  5
155
330
1F
100
AcDbEntity
  8
0
  6
PHANTOM
 62
     8
370
     0
100
AcDbPolyline
 90
        9
 70
   128
 43
0.0
 10
835.5720321292
 20
773.1386049771
 10
835.5008455569
 20
773.6473008179
 10
835.3824530373
 20
774.1242422842
 10
835.2205044234
 20
774.5547368311
 10
835.0199943984
 20
774.9255224251
 10
834.7871004248
 20
775.2251698756
 10
834.5290029997
 20
775.4444255614
 10
834.2536612058
 20
775.5765392565
 10
834.0394123102
 20
775.6159826302
  0
LWPOLYLINE
  5
156
330
1F
100
AcDbEntity
  8
0
  6
PHANTOM
 62
     8
370
     0
100
AcDbPolyline
 90
        9
 70
   128
 43
0.0
 10
866.3670885021
 20
773.1386049771
 10
866.4382750744
 20
773.6473008179
 10
866.5566675941
 20
774.1242422842
 10
866.7186162079
 20
774.5547368311
 10
866.9191262329
 20
774.9255224251
 10
867.1520202065
 20
775.2251698756
 10
867.4101176316
 20
775.4444255614
 10
867.6854594255
 20
775.5765392565
 10
867.8997083212
 20
775.6159826302
  0
LWPOLYLINE
  5
157
330
1F
100
AcDbEntity
  8
0
  6
PHANTOM
 62
     8
370
     0
100
AcDbPolyline
 90
        9
 70
   128
 43
0.0
 10
830.0622253323
 20
779.5418276572
 10
830.266086256
 20
779.4886752152
 10
830.4470701719
 20
779.4308587097
 10
830.6033703143
 20
779.3689741873
 10
830.7334332371
 20
779.3036027932
 10
830.8359625394
 20
779.2354299807
 10
830.9099356288
 20
779.165111401
 10
830.9546167607
 20
779.0933474087
 10
830.9695607627
 20
779.0208830618
  0
LWPOLYLINE
  5
158
330
1F
100
AcDbEntity
  8
0
  6
PHANTOM
 62
     8
370
     0
100
AcDbPolyline
 90
        9
 70
   128
 43
0.0
 10
871.876895299
 20
779.5418276572
 10
871.6730343754
 20
779.4886752152
 10
871.4920504594
 20
779.4308587097
 10
871.335750317
 20
779.3689741873
 10
871.2056873942
 20
779.3036027932
 10
871.103158092
 20
779.2354299807
 10
871.0291850025
 20
779.165111401
 10
870.9845038707
 20
779.0933474087
 10
870.9695598686
 20
779.0208830618
  0
LWPOLYLINE
  5
159
330
1F
100
AcDbEntity
  8
0
  6
PHANTOM
 62
     8
370
     0
100
AcDbPolyline
 90
        9
 70
   128
 43
0.0
 10
830.9695607627
 20
793.8566430592
 10
830.9518768097
 20
793.9305975222
 10
830.8990335668
 20
794.0036877179
 10
830.8116531575
 20
794.0750344776
 10
830.6907674873
 20
794.1438033366
 10
830.5378014798
 20
794.2091896319
 10
830.3545563126
 20
794.2704185032
 10
830.143194517
 20
794.3267746949
 10
829.9062064493
 20
794.3775876545
  0
ARC
  5
15A
330
1F
100
AcDbEntity
  8
0
  6
PHANTOM
 62
     8
370
     0
100
AcDbCircle
 10
827.2083223039
 20
794.3461268308
 30
0.0
 40
2.698067576183787
100
AcDbArc
 50
0.6681127216
 51
66.019361508
  0
LWPOLYLINE
  5
15B
330
1F
100
AcDbEntity
  8
0
  6
PHANTOM
 62
     8
370
     0
100
AcDbPolyline
 90
        9
 70
   128
 43
0.0
 10
872.032914182
 20
794.3775876545
 10
871.7959261144
 20
794.3267746949
 10
871.5845643187
 20
794.2704185032
 10
871.4013191516
 20
794.2091896319
 10
871.248353144
 20
794.1438033366
 10
871.1274674738
 20
794.0750344776
 10
871.0400870646
 20
794.0036877179
 10
870.9872438217
 20
793.9305975222
 10
870.9695598686
 20
793.8566430592
  0
ARC
  5
15C
330
1F
100
AcDbEntity
  8
0
  6
PHANTOM
 62
     8
370
     0
100
AcDbCircle
 10
874.7307954359
 20
794.3461278941
 30
0.0
 40
2.698064672423822
100
AcDbArc
 50
113.980555424
 51
179.331909141
  0
ARC
  5
15D
330
1F
100
AcDbEntity
  8
0
  6
PHANTOM
 62
     8
370
     0
100
AcDbCircle
 10
884.9719352073
 20
793.6445899622
 30
0.0
 40
2.973256177458334
100
AcDbArc
 50
91.8956870331
 51
170.4067078747
  0
ARC
  5
15E
330
1F
100
AcDbEntity
  8
0
  6
PHANTOM
 62
     8
370
     0
100
AcDbCircle
 10
816.9671683382
 20
793.6445852572
 30
0.0
 40
2.973260952216597
100
AcDbArc
 50
9.593368528
 51
88.1042738913
  0
ARC
  5
15F
330
1F
100
AcDbEntity
  8
0
  6
PHANTOM
 62
     8
370
     0
100
AcDbCircle
 10
885.9685464802
 20
793.4606699508
 30
0.0
 40
2.998848408563806
100
AcDbArc
 50
90.0121574675
 51
170.0185795758
  0
ARC
  5
160
330
1F
100
AcDbEntity
  8
0
  6
PHANTOM
 62
     8
370
     0
100
AcDbCircle
 10
815.97057258
 20
793.4606680786
 30
0.0
 40
2.998850280377884
100
AcDbArc
 50
9.9814504514
 51
89.9878836983
  0
LINE
  5
161
330
1F
100
AcDbEntity
  8
0
  6
PHANTOM
 62
     8
370
     0
100
AcDbLine
 10
1393.9695431495
 20
978.5595166384
 30
0.0
 11
1393.9695431495
 21
979.459516623
 31
0.0
  0
LINE
  5
162
330
1F
100
AcDbEntity
  8
0
  6
PHANTOM
 62
     8
370
     0
100
AcDbLine
 10
1393.9695431495
 20
978.5595166384
 30
0.0
 11
1362.9695846344
 21
978.5595166384
 31
0.0
  0
LINE
  5
163
330
1F
100
AcDbEntity
  8
0
  6
PHANTOM
 62
     8
370
     0
100
AcDbLine
 10
1362.9695846344
 20
979.459516623
 30
0.0
 11
1362.9695846344
 21
978.5595166384
 31
0.0
  0
LINE
  5
164
330
1F
100
AcDbEntity
  8
0
  6
PHANTOM
 62
     8
370
     0
100
AcDbLine
 10
1362.9695846344
 20
815.5595137858
 30
0.0
 11
1393.9695431495
 21
815.5595137858
 31
0.0
  0
LINE
  5
165
330
1F
100
AcDbEntity
  8
0
  6
PHANTOM
 62
     8
370
     0
100
AcDbLine
 10
1362.9695846344
 20
978.5595166384
 30
0.0
 11
1362.9695846344
 21
815.5595137858
 31
0.0
  0
LINE
  5
166
330
1F
100
AcDbEntity
  8
0
  6
PHANTOM
 62
     8
370
     0
100
AcDbLine
 10
1393.9695431495
 20
978.5595166384
 30
0.0
 11
1393.9695431495
 21
815.5595137858
 31
0.0
  0
LINE
  5
167
330
1F
100
AcDbEntity
  8
0
  6
PHANTOM
 62
     8
370
     0
100
AcDbLine
 10
1361.9695379043
 20
978.5595166384
 30
0.0
 11
1362.9695846344
 21
978.5595166384
 31
0.0
  0
LINE
  5
168
330
1F
100
AcDbEntity
  8
0
  6
PHANTOM
 62
     8
370
     0
100
AcDbLine
 10
1361.9695379043
 20
815.5595137858
 30
0.0
 11
1362.9695846344
 21
815.5595137858
 31
0.0
  0
LINE
  5
169
330
1F
100
AcDbEntity
  8
0
  6
PHANTOM
 62
     8
370
     0
100
AcDbLine
 10
1425.9695483947
 20
978.5595166384
 30
0.0
 11
1393.9695431495
 21
978.5595166384
 31
0.0
  0
LINE
  5
16A
330
1F
100
AcDbEntity
  8
0
  6
PHANTOM
 62
     8
370
     0
100
AcDbLine
 10
1393.9695431495
 20
814.5595117592
 30
0.0
 11
1393.9695431495
 21
815.5595137858
 31
0.0
  0
LINE
  5
16B
330
1F
100
AcDbEntity
  8
0
  6
PHANTOM
 62
     8
370
     0
100
AcDbLine
 10
1393.9695431495
 20
815.5595137858
 30
0.0
 11
1425.9695483947
 21
815.5595137858
 31
0.0
  0
LINE
  5
16C
330
1F
100
AcDbEntity
  8
0
  6
PHANTOM
 62
     8
370
     0
100
AcDbLine
 10
1362.9695846344
 20
814.5595117592
 30
0.0
 11
1362.9695846344
 21
815.5595137858
 31
0.0
  0
LINE
  5
16D
330
1F
100
AcDbEntity
  8
0
  6
PHANTOM
 62
     8
370
     0
100
AcDbLine
 10
1362.7295567299
 20
810.2995230936
 30
0.0
 11
1425.2095891739
 21
810.2995230936
 31
0.0
  0
LINE
  5
16E
330
1F
100
AcDbEntity
  8
0
  6
PHANTOM
 62
     8
370
     0
100
AcDbLine
 10
1423.5618783737
 20
813.6645629191
 30
0.0
 11
1364.37726753
 21
813.6645629191
 31
0.0
  0
LINE
  5
16F
330
1F
100
AcDbEntity
  8
0
  6
PHANTOM
 62
     8
370
     0
100
AcDbLine
 10
1364.3862082267
 20
806.5950944208
 30
0.0
 11
1423.5528780723
 21
806.5950944208
 31
0.0
  0
LINE
  5
170
330
1F
100
AcDbEntity
  8
0
  6
PHANTOM
 62
     8
370
     0
100
AcDbLine
 10
1414.5595504547
 20
786.4853962445
 30
0.0
 11
1373.3795358444
 21
786.4853962445
 31
0.0
  0
LINE
  5
171
330
1F
100
AcDbEntity
  8
0
  6
PHANTOM
 62
     8
370
     0
100
AcDbLine
 10
1368.180997541
 20
768.8315584444
 30
0.0
 11
1419.7580887581
 21
768.8315584444
 31
0.0
  0
LINE
  5
172
330
1F
100
AcDbEntity
  8
0
  6
PHANTOM
 62
     8
370
     0
100
AcDbLine
 10
1368.7428309227
 20
769.8974385046
 30
0.0
 11
1419.196314981
 21
769.8974385046
 31
0.0
  0
LINE
  5
173
330
1F
100
AcDbEntity
  8
0
  6
PHANTOM
 62
     8
370
     0
100
AcDbLine
 10
1368.4695436264
 20
754.6825333618
 30
0.0
 11
1419.4695426727
 21
754.6825333618
 31
0.0
  0
LINE
  5
174
330
1F
100
AcDbEntity
  8
0
  6
PHANTOM
 62
     8
370
     0
100
AcDbLine
 10
1415.2683688903
 20
759.1725959563
 30
0.0
 11
1372.6707174087
 21
759.1725959563
 31
0.0
  0
LINE
  5
175
330
1F
100
AcDbEntity
  8
0
  6
PHANTOM
 62
     8
370
     0
100
AcDbLine
 10
1373.3795358444
 20
785.4495122217
 30
0.0
 11
1414.5595504547
 21
785.4495122217
 31
0.0
  0
LINE
  5
176
330
1F
100
AcDbEntity
  8
0
  6
PHANTOM
 62
     8
370
     0
100
AcDbLine
 10
1413.4945346618
 20
761.5395113015
 30
0.0
 11
1374.4445516372
 21
761.5395113015
 31
0.0
  0
LINE
  5
177
330
1F
100
AcDbEntity
  8
0
  6
PHANTOM
 62
     8
370
     0
100
AcDbLine
 10
1374.4445516372
 20
761.0684110903
 30
0.0
 11
1413.4945346618
 21
761.0684110903
 31
0.0
  0
LINE
  5
178
330
1F
100
AcDbEntity
  8
0
  6
PHANTOM
 62
     8
370
     0
100
AcDbLine
 10
1377.7040316368
 20
207.6650782608
 30
0.0
 11
1410.2350546623
 21
207.6650782608
 31
0.0
  0
LINE
  5
179
330
1F
100
AcDbEntity
  8
0
  6
PHANTOM
 62
     8
370
     0
100
AcDbLine
 10
1375.9695364738
 20
190.1825591111
 30
0.0
 11
1411.9695498253
 21
190.1825591111
 31
0.0
  0
LINE
  5
17A
330
1F
100
AcDbEntity
  8
0
  6
PHANTOM
 62
     8
370
     0
100
AcDbLine
 10
1411.9695498253
 20
190.5173584008
 30
0.0
 11
1375.9695364738
 21
190.5173584008
 31
0.0
  0
LINE
  5
17B
330
1F
100
AcDbEntity
  8
0
  6
PHANTOM
 62
     8
370
     0
100
AcDbLine
 10
1378.548510244
 20
193.8940211319
 30
0.0
 11
1409.3906356598
 21
193.8940211319
 31
0.0
  0
LINE
  5
17C
330
1F
100
AcDbEntity
  8
0
  6
PHANTOM
 62
     8
370
     0
100
AcDbLine
 10
1379.020340612
 20
205.8029695534
 30
0.0
 11
1408.9187456871
 21
205.8029695534
 31
0.0
  0
LINE
  5
17D
330
1F
100
AcDbEntity
  8
0
  6
PHANTOM
 62
     8
370
     0
100
AcDbLine
 10
1382.9695655609
 20
199.6825262093
 30
0.0
 11
1404.9695803428
 21
199.6825262093
 31
0.0
  0
LINE
  5
17E
330
1F
100
AcDbEntity
  8
0
  6
PHANTOM
 62
     8
370
     0
100
AcDbLine
 10
1404.9695803428
 20
200.1643701577
 30
0.0
 11
1382.9695655609
 21
200.1643701577
 31
0.0
  0
LINE
  5
17F
330
1F
100
AcDbEntity
  8
0
  6
PHANTOM
 62
     8
370
     0
100
AcDbLine
 10
1407.9447461868
 20
186.2087174439
 30
0.0
 11
1379.9943997169
 21
186.2087174439
 31
0.0
  0
LINE
  5
180
330
1F
100
AcDbEntity
  8
0
  6
PHANTOM
 62
     8
370
     0
100
AcDbLine
 10
1383.2739664817
 20
123.6302181267
 30
0.0
 11
1404.6651198173
 21
123.6302181267
 31
0.0
  0
LINE
  5
181
330
1F
100
AcDbEntity
  8
0
  6
PHANTOM
 62
     8
370
     0
100
AcDbLine
 10
338.969535997
 20
978.5595166384
 30
0.0
 11
307.9695774818
 21
978.5595166384
 31
0.0
  0
LINE
  5
182
330
1F
100
AcDbEntity
  8
0
  6
PHANTOM
 62
     8
370
     0
100
AcDbLine
 10
338.969535997
 20
815.5595137858
 30
0.0
 11
338.969535997
 21
978.5595166384
 31
0.0
  0
LINE
  5
183
330
1F
100
AcDbEntity
  8
0
  6
PHANTOM
 62
     8
370
     0
100
AcDbLine
 10
307.9695774818
 20
815.5595137858
 30
0.0
 11
338.969535997
 21
815.5595137858
 31
0.0
  0
LINE
  5
184
330
1F
100
AcDbEntity
  8
0
  6
PHANTOM
 62
     8
370
     0
100
AcDbLine
 10
307.9695774818
 20
978.5595166384
 30
0.0
 11
307.9695774818
 21
815.5595137858
 31
0.0
  0
LINE
  5
185
330
1F
100
AcDbEntity
  8
0
  6
PHANTOM
 62
     8
370
     0
100
AcDbLine
 10
275.9695722366
 20
815.5595137858
 30
0.0
 11
307.9695774818
 21
815.5595137858
 31
0.0
  0
LINE
  5
186
330
1F
100
AcDbEntity
  8
0
  6
PHANTOM
 62
     8
370
     0
100
AcDbLine
 10
307.9695774818
 20
814.5595117592
 30
0.0
 11
307.9695774818
 21
815.5595137858
 31
0.0
  0
LINE
  5
187
330
1F
100
AcDbEntity
  8
0
  6
PHANTOM
 62
     8
370
     0
100
AcDbLine
 10
307.9695774818
 20
978.5595166384
 30
0.0
 11
275.9695722366
 21
978.5595166384
 31
0.0
  0
LINE
  5
188
330
1F
100
AcDbEntity
  8
0
  6
PHANTOM
 62
     8
370
     0
100
AcDbLine
 10
307.9695774818
 20
978.5595166384
 30
0.0
 11
307.9695774818
 21
979.459516623
 31
0.0
  0
LINE
  5
189
330
1F
100
AcDbEntity
  8
0
  6
PHANTOM
 62
     8
370
     0
100
AcDbLine
 10
338.969535997
 20
815.5595137858
 30
0.0
 11
338.969535997
 21
814.5595117592
 31
0.0
  0
LINE
  5
18A
330
1F
100
AcDbEntity
  8
0
  6
PHANTOM
 62
     8
370
     0
100
AcDbLine
 10
338.969535997
 20
978.5595166384
 30
0.0
 11
339.969582727
 21
978.5595166384
 31
0.0
  0
LINE
  5
18B
330
1F
100
AcDbEntity
  8
0
  6
PHANTOM
 62
     8
370
     0
100
AcDbLine
 10
338.969535997
 20
815.5595137858
 30
0.0
 11
339.969582727
 21
815.5595137858
 31
0.0
  0
LINE
  5
18C
330
1F
100
AcDbEntity
  8
0
  6
PHANTOM
 62
     8
370
     0
100
AcDbLine
 10
338.969535997
 20
978.5595166384
 30
0.0
 11
338.969535997
 21
979.459516623
 31
0.0
  0
LINE
  5
18D
330
1F
100
AcDbEntity
  8
0
  6
PHANTOM
 62
     8
370
     0
100
AcDbLine
 10
276.7295314575
 20
810.2995230936
 30
0.0
 11
339.2095639015
 21
810.2995230936
 31
0.0
  0
LINE
  5
18E
330
1F
100
AcDbEntity
  8
0
  6
PHANTOM
 62
     8
370
     0
100
AcDbLine
 10
307.9695774818
 20
806.5950944208
 30
0.0
 11
337.5529124046
 21
806.5950944208
 31
0.0
  0
LINE
  5
18F
330
1F
100
AcDbEntity
  8
0
  6
PHANTOM
 62
     8
370
     0
100
AcDbLine
 10
278.386242559
 20
806.5950944208
 30
0.0
 11
307.9695774818
 21
806.5950944208
 31
0.0
  0
LINE
  5
190
330
1F
100
AcDbEntity
  8
0
  6
PHANTOM
 62
     8
370
     0
100
AcDbLine
 10
337.5618531013
 20
813.6645629191
 30
0.0
 11
278.3772422577
 21
813.6645629191
 31
0.0
  0
LINE
  5
191
330
1F
100
AcDbEntity
  8
0
  6
PHANTOM
 62
     8
370
     0
100
AcDbLine
 10
328.559584787
 20
786.4853962445
 30
0.0
 11
287.3795701767
 21
786.4853962445
 31
0.0
  0
LINE
  5
192
330
1F
100
AcDbEntity
  8
0
  6
PHANTOM
 62
     8
370
     0
100
AcDbLine
 10
282.1810318733
 20
768.8315584444
 30
0.0
 11
333.7581230903
 21
768.8315584444
 31
0.0
  0
LINE
  5
193
330
1F
100
AcDbEntity
  8
0
  6
PHANTOM
 62
     8
370
     0
100
AcDbLine
 10
307.9695774818
 20
769.8974385046
 30
0.0
 11
333.1962897087
 21
769.8974385046
 31
0.0
  0
LINE
  5
194
330
1F
100
AcDbEntity
  8
0
  6
PHANTOM
 62
     8
370
     0
100
AcDbLine
 10
282.7428056503
 20
769.8974385046
 30
0.0
 11
307.9695774818
 21
769.8974385046
 31
0.0
  0
LINE
  5
195
330
1F
100
AcDbEntity
  8
0
  6
PHANTOM
 62
     8
370
     0
100
AcDbLine
 10
282.4695779586
 20
754.6825333618
 30
0.0
 11
333.469577005
 21
754.6825333618
 31
0.0
  0
LINE
  5
196
330
1F
100
AcDbEntity
  8
0
  6
PHANTOM
 62
     8
370
     0
100
AcDbLine
 10
329.2684032226
 20
759.1725959563
 30
0.0
 11
286.670751741
 21
759.1725959563
 31
0.0
  0
LINE
  5
197
330
1F
100
AcDbEntity
  8
0
  6
PHANTOM
 62
     8
370
     0
100
AcDbLine
 10
287.3795701767
 20
785.4495122217
 30
0.0
 11
328.559584787
 21
785.4495122217
 31
0.0
  0
LINE
  5
198
330
1F
100
AcDbEntity
  8
0
  6
PHANTOM
 62
     8
370
     0
100
AcDbLine
 10
327.4945689941
 20
761.5395113015
 30
0.0
 11
288.4445859695
 21
761.5395113015
 31
0.0
  0
LINE
  5
199
330
1F
100
AcDbEntity
  8
0
  6
PHANTOM
 62
     8
370
     0
100
AcDbLine
 10
307.9695774818
 20
761.0684110903
 30
0.0
 11
327.4945689941
 21
761.0684110903
 31
0.0
  0
LINE
  5
19A
330
1F
100
AcDbEntity
  8
0
  6
PHANTOM
 62
     8
370
     0
100
AcDbLine
 10
288.4445859695
 20
761.0684110903
 30
0.0
 11
307.9695774818
 21
761.0684110903
 31
0.0
  0
LINE
  5
19B
330
1F
100
AcDbEntity
  8
0
  6
PHANTOM
 62
     8
370
     0
100
AcDbLine
 10
307.9695774818
 20
207.6650782608
 30
0.0
 11
324.2350889946
 21
207.6650782608
 31
0.0
  0
LINE
  5
19C
330
1F
100
AcDbEntity
  8
0
  6
PHANTOM
 62
     8
370
     0
100
AcDbLine
 10
291.7040659691
 20
207.6650782608
 30
0.0
 11
307.9695774818
 21
207.6650782608
 31
0.0
  0
LINE
  5
19D
330
1F
100
AcDbEntity
  8
0
  6
PHANTOM
 62
     8
370
     0
100
AcDbLine
 10
307.9695774818
 20
190.5173584008
 30
0.0
 11
289.9695708061
 21
190.5173584008
 31
0.0
  0
LINE
  5
19E
330
1F
100
AcDbEntity
  8
0
  6
PHANTOM
 62
     8
370
     0
100
AcDbLine
 10
325.9695841575
 20
190.5173584008
 30
0.0
 11
307.9695774818
 21
190.5173584008
 31
0.0
  0
LINE
  5
19F
330
1F
100
AcDbEntity
  8
0
  6
PHANTOM
 62
     8
370
     0
100
AcDbLine
 10
307.9695774818
 20
193.8940211319
 30
0.0
 11
323.3906103874
 21
193.8940211319
 31
0.0
  0
LINE
  5
1A0
330
1F
100
AcDbEntity
  8
0
  6
PHANTOM
 62
     8
370
     0
100
AcDbLine
 10
292.5484849716
 20
193.8940211319
 30
0.0
 11
307.9695774818
 21
193.8940211319
 31
0.0
  0
LINE
  5
1A1
330
1F
100
AcDbEntity
  8
0
  6
PHANTOM
 62
     8
370
     0
100
AcDbLine
 10
289.9695708061
 20
190.1825591111
 30
0.0
 11
325.9695841575
 21
190.1825591111
 31
0.0
  0
LINE
  5
1A2
330
1F
100
AcDbEntity
  8
0
  6
PHANTOM
 62
     8
370
     0
100
AcDbLine
 10
307.9695774818
 20
205.8029695534
 30
0.0
 11
322.9187800193
 21
205.8029695534
 31
0.0
  0
LINE
  5
1A3
330
1F
100
AcDbEntity
  8
0
  6
PHANTOM
 62
     8
370
     0
100
AcDbLine
 10
293.0203749443
 20
205.8029695534
 30
0.0
 11
307.9695774818
 21
205.8029695534
 31
0.0
  0
LINE
  5
1A4
330
1F
100
AcDbEntity
  8
0
  6
PHANTOM
 62
     8
370
     0
100
AcDbLine
 10
296.9695402885
 20
199.6825262093
 30
0.0
 11
318.9695550705
 21
199.6825262093
 31
0.0
  0
LINE
  5
1A5
330
1F
100
AcDbEntity
  8
0
  6
PHANTOM
 62
     8
370
     0
100
AcDbLine
 10
318.9695550705
 20
200.1643701577
 30
0.0
 11
296.9695402885
 21
200.1643701577
 31
0.0
  0
LINE
  5
1A6
330
1F
100
AcDbEntity
  8
0
  6
PHANTOM
 62
     8
370
     0
100
AcDbLine
 10
321.9447209144
 20
186.2087174439
 30
0.0
 11
293.9943744445
 21
186.2087174439
 31
0.0
  0
LINE
  5
1A7
330
1F
100
AcDbEntity
  8
0
  6
PHANTOM
 62
     8
370
     0
100
AcDbLine
 10
307.9695774818
 20
123.6302181267
 30
0.0
 11
318.6651541496
 21
123.6302181267
 31
0.0
  0
LINE
  5
1A8
330
1F
100
AcDbEntity
  8
0
  6
PHANTOM
 62
     8
370
     0
100
AcDbLine
 10
297.274000814
 20
123.6302181267
 30
0.0
 11
307.9695774818
 21
123.6302181267
 31
0.0
  0
LINE
  5
1A9
330
1F
100
AcDbEntity
  8
0
  6
PHANTOM
 62
     8
370
     0
100
AcDbLine
 10
290.9695579315
 20
979.459516623
 30
0.0
 11
290.9695579315
 21
991.4595167273
 31
0.0
  0
LINE
  5
1AA
330
1F
100
AcDbEntity
  8
0
  6
PHANTOM
 62
     8
370
     0
100
AcDbLine
 10
290.9695579315
 20
991.4595167273
 30
0.0
 11
1410.9695626999
 21
991.4595167273
 31
0.0
  0
LINE
  5
1AB
330
1F
100
AcDbEntity
  8
0
  6
PHANTOM
 62
     8
370
     0
100
AcDbLine
 10
1410.9695626999
 20
979.459516623
 30
0.0
 11
1410.9695626999
 21
991.4595167273
 31
0.0
  0
LINE
  5
1AC
330
1F
100
AcDbEntity
  8
0
  6
PHANTOM
 62
     8
370
     0
100
AcDbLine
 10
1410.9695626999
 20
991.4595167273
 30
0.0
 11
1450.9695841575
 21
991.4595167273
 31
0.0
  0
LINE
  5
1AD
330
1F
100
AcDbEntity
  8
0
  6
PHANTOM
 62
     8
370
     0
100
AcDbLine
 10
290.9695579315
 20
992.4595168912
 30
0.0
 11
290.9695579315
 21
1004.4595169955
 31
0.0
  0
LINE
  5
1AE
330
1F
100
AcDbEntity
  8
0
  6
PHANTOM
 62
     8
370
     0
100
AcDbLine
 10
290.9695579315
 20
992.4595168912
 30
0.0
 11
250.9695364738
 21
992.4595168912
 31
0.0
  0
LINE
  5
1AF
330
1F
100
AcDbEntity
  8
0
  6
PHANTOM
 62
     8
370
     0
100
AcDbLine
 10
1410.9695626999
 20
992.4595168912
 30
0.0
 11
290.9695579315
 21
992.4595168912
 31
0.0
  0
LINE
  5
1B0
330
1F
100
AcDbEntity
  8
0
  6
PHANTOM
 62
     8
370
     0
100
AcDbLine
 10
1410.9695626999
 20
991.4595167273
 30
0.0
 11
1410.9695626999
 21
992.4595168912
 31
0.0
  0
LINE
  5
1B1
330
1F
100
AcDbEntity
  8
0
  6
PHANTOM
 62
     8
370
     0
100
AcDbLine
 10
290.9695579315
 20
992.4595168912
 30
0.0
 11
290.9695579315
 21
991.4595167273
 31
0.0
  0
LINE
  5
1B2
330
1F
100
AcDbEntity
  8
0
  6
PHANTOM
 62
     8
370
     0
100
AcDbLine
 10
1410.9695626999
 20
992.4595168912
 30
0.0
 11
1410.9695626999
 21
1004.4595169955
 31
0.0
  0
LINE
  5
1B3
330
1F
100
AcDbEntity
  8
0
  6
PHANTOM
 62
     8
370
     0
100
AcDbLine
 10
250.9695364738
 20
991.4595167273
 30
0.0
 11
290.9695579315
 21
991.4595167273
 31
0.0
  0
LINE
  5
1B4
330
1F
100
AcDbEntity
  8
0
  6
PHANTOM
 62
     8
370
     0
100
AcDbLine
 10
1450.9695841575
 20
992.4595168912
 30
0.0
 11
1410.9695626999
 21
992.4595168912
 31
0.0
  0
LINE
  5
1B5
330
1F
100
AcDbEntity
  8
0
  6
PHANTOM
 62
     8
370
     0
100
AcDbLine
 10
1405.9695674682
 20
1004.4595169955
 30
0.0
 11
1405.9695674682
 21
1016.6470184111
 31
0.0
  0
LINE
  5
1B6
330
1F
100
AcDbEntity
  8
0
  6
PHANTOM
 62
     8
370
     0
100
AcDbLine
 10
1425.9949995781
 20
1016.6470184111
 30
0.0
 11
1405.9695674682
 21
1016.6470184111
 31
0.0
  0
LINE
  5
1B7
330
1F
100
AcDbEntity
  8
0
  6
PHANTOM
 62
     8
370
     0
100
AcDbLine
 10
295.9695531631
 20
1016.6470184111
 30
0.0
 11
275.9441210533
 21
1016.6470184111
 31
0.0
  0
LINE
  5
1B8
330
1F
100
AcDbEntity
  8
0
  6
PHANTOM
 62
     8
370
     0
100
AcDbLine
 10
295.9695531631
 20
1004.4595169955
 30
0.0
 11
295.9695531631
 21
1016.6470184111
 31
0.0
  0
LINE
  5
1B9
330
1F
100
AcDbEntity
  8
0
  6
PHANTOM
 62
     8
370
     0
100
AcDbLine
 10
1405.9695674682
 20
1016.6470184111
 30
0.0
 11
295.9695531631
 21
1016.6470184111
 31
0.0
  0
LINE
  5
1BA
330
1F
100
AcDbEntity
  8
0
  6
PHANTOM
 62
     8
370
     0
100
AcDbLine
 10
295.9695531631
 20
1019.4595157289
 30
0.0
 11
295.9695531631
 21
1016.6470184111
 31
0.0
  0
LINE
  5
1BB
330
1F
100
AcDbEntity
  8
0
  6
PHANTOM
 62
     8
370
     0
100
AcDbLine
 10
1405.9695674682
 20
1019.4595157289
 30
0.0
 11
1405.9695674682
 21
1016.6470184111
 31
0.0
  0
LINE
  5
1BC
330
1F
100
AcDbEntity
  8
0
  6
PHANTOM
 62
     8
370
     0
100
AcDbLine
 10
340.1695563102
 20
815.3595104002
 30
0.0
 11
1361.7695643211
 21
815.3595104002
 31
0.0
  0
SPLINE
  5
1BD
330
1F
100
AcDbEntity
  8
0
  6
PHANTOM
 62
     8
370
     0
100
AcDbSpline
210
0.0
220
0.0
230
1.0
 70
     8
 71
     3
 72
    12
 73
     8
 74
     0
 42
0.000000001
 43
0.00000001
 40
0.0
 40
0.0
 40
0.0
 40
0.0
 40
0.2214456664789442
 40
0.4440043666747647
 40
0.6465430895313302
 40
0.8407771756611627
 40
1.0
 40
1.0
 40
1.0
 40
1.0
 10
358.6866630817075
 20
958.4698676251733
 30
0.0
 10
358.6989725101793
 20
958.6188846844522
 30
0.0
 10
358.7236532369672
 20
958.9176677949139
 30
0.0
 10
358.9403161064103
 20
959.3090992440987
 30
0.0
 10
359.2613905603515
 20
959.5818127423789
 30
0.0
 10
359.6153217335773
 20
959.7218195217656
 30
0.0
 10
359.8524171461016
 20
959.7360190913585
 30
0.0
 10
359.9592222476621
 20
959.742415615257
 30
0.0
  0
LINE
  5
1BE
330
1F
100
AcDbEntity
  8
0
  6
PHANTOM
 62
     8
370
     0
100
AcDbLine
 10
358.6866630817
 20
835.349164822
 30
0.0
 11
358.6866630817
 21
958.4698676252
 31
0.0
  0
SPLINE
  5
1BF
330
1F
100
AcDbEntity
  8
0
  6
PHANTOM
 62
     8
370
     0
100
AcDbSpline
210
0.0
220
0.0
230
1.0
 70
     8
 71
     3
 72
    12
 73
     8
 74
     0
 42
0.000000001
 43
0.00000001
 40
0.0
 40
0.0
 40
0.0
 40
0.0
 40
0.2214522520744634
 40
0.4440119390580493
 40
0.6465531761929627
 40
0.8407859916268756
 40
1.0
 40
1.0
 40
1.0
 40
1.0
 10
359.959222247662
 20
834.076620557245
 30
0.0
 10
359.8101991442663
 20
834.0889235475079
 30
0.0
 10
359.5114077051033
 20
834.1135910526323
 30
0.0
 10
359.1199606974851
 20
834.3302556052457
 30
0.0
 10
358.847264125289
 20
834.6513488655014
 30
0.0
 10
358.7072504975157
 20
835.0052733517816
 30
0.0
 10
358.6930567922996
 20
835.242364504971
 30
0.0
 10
358.6866630817075
 20
835.3491648220383
 30
0.0
  0
LINE
  5
1C0
330
1F
100
AcDbEntity
  8
0
  6
PHANTOM
 62
     8
370
     0
100
AcDbLine
 10
1341.9798983837
 20
834.0766205572
 30
0.0
 11
359.9592222477
 21
834.0766205572
 31
0.0
  0
SPLINE
  5
1C1
330
1F
100
AcDbEntity
  8
0
  6
PHANTOM
 62
     8
370
     0
100
AcDbSpline
210
0.0
220
0.0
230
1.0
 70
     8
 71
     3
 72
    12
 73
     8
 74
     0
 42
0.000000001
 43
0.00000001
 40
0.0
 40
0.0
 40
0.0
 40
0.0
 40
0.2214474171060223
 40
0.4440019631913736
 40
0.6465436196129898
 40
0.8407776334862801
 40
1.0
 40
1.0
 40
1.0
 40
1.0
 10
1343.252457549633
 20
835.3491648220383
 30
0.0
 10
1343.240149017009
 20
835.2001460222182
 30
0.0
 10
1343.215470415107
 20
834.9013634013265
 30
0.0
 10
1342.998798370862
 20
834.5099378219263
 30
0.0
 10
1342.677733623206
 20
834.2372156704855
 30
0.0
 10
1342.323799086802
 20
834.097207170981
 30
0.0
 10
1342.086703442652
 20
834.0830141309543
 30
0.0
 10
1341.979898383679
 20
834.076620557245
 30
0.0
  0
LINE
  5
1C2
330
1F
100
AcDbEntity
  8
0
  6
PHANTOM
 62
     8
370
     0
100
AcDbLine
 10
1343.2524575496
 20
958.4698676252
 30
0.0
 11
1343.2524575496
 21
835.349164822
 31
0.0
  0
SPLINE
  5
1C3
330
1F
100
AcDbEntity
  8
0
  6
PHANTOM
 62
     8
370
     0
100
AcDbSpline
210
0.0
220
0.0
230
1.0
 70
     8
 71
     3
 72
    12
 73
     8
 74
     0
 42
0.000000001
 43
0.00000001
 40
0.0
 40
0.0
 40
0.0
 40
0.0
 40
0.2214528720946722
 40
0.4440117265513155
 40
0.6465537193146479
 40
0.8407822644248658
 40
1.0
 40
1.0
 40
1.0
 40
1.0
 10
1341.979898383679
 20
959.742415615257
 30
0.0
 10
1342.128921172246
 20
959.7301091921464
 30
0.0
 10
1342.427711000624
 20
959.7054348850518
 30
0.0
 10
1342.81916199382
 20
959.4887779984053
 30
0.0
 10
1343.091852967849
 20
959.1676834135205
 30
0.0
 10
1343.231872444348
 20
958.8137618097219
 30
0.0
 10
1343.246064446653
 20
958.5766706220769
 30
0.0
 10
1343.252457549633
 20
958.4698676251733
 30
0.0
  0
LINE
  5
1C4
330
1F
100
AcDbEntity
  8
0
  6
PHANTOM
 62
     8
370
     0
100
AcDbLine
 10
359.9592222477
 20
959.7424156153
 30
0.0
 11
1341.9798983837
 21
959.7424156153
 31
0.0
  0
LINE
  5
1C5
330
1F
100
AcDbEntity
  8
0
  6
PHANTOM
 62
     8
370
     0
100
AcDbLine
 10
1342.8282810951
 20
958.4698676252
 30
0.0
 11
1343.2524575496
 21
958.4698676252
 31
0.0
  0
SPLINE
  5
1C6
330
1F
100
AcDbEntity
  8
0
  6
PHANTOM
 62
     8
370
     0
100
AcDbSpline
210
0.0
220
0.0
230
1.0
 70
     8
 71
     3
 72
    14
 73
    10
 74
     0
 42
0.000000001
 43
0.00000001
 40
0.0
 40
0.0
 40
0.0
 40
0.0
 40
0.1656939339527447
 40
0.3584367743449449
 40
0.5178891930536456
 40
0.5538835157711696
 40
0.7491100715348025
 40
0.7715862589980126
 40
1.0
 40
1.0
 40
1.0
 40
1.0
 10
1342.828281095089
 20
958.4698676251733
 30
0.0
 10
1342.830367846886
 20
958.5465071881779
 30
0.0
 10
1342.834882004798
 20
958.7122974322458
 30
0.0
 10
1342.760588763911
 20
958.9470337000632
 30
0.0
 10
1342.649253015357
 20
959.0934213160658
 30
0.0
 10
1342.511545328424
 20
959.2117322418135
 30
0.0
 10
1342.402640212949
 20
959.2660670237743
 30
0.0
 10
1342.203497408446
 20
959.3211135147657
 30
0.0
 10
1342.086455234763
 20
959.3196060186093
 30
0.0
 10
1341.979898383679
 20
959.3182335727774
 30
0.0
  0
LINE
  5
1C7
330
1F
100
AcDbEntity
  8
0
  6
PHANTOM
 62
     8
370
     0
100
AcDbLine
 10
1341.9798983837
 20
959.7424156153
 30
0.0
 11
1341.9798983837
 21
959.3182335728
 31
0.0
  0
LINE
  5
1C8
330
1F
100
AcDbEntity
  8
0
  6
PHANTOM
 62
     8
370
     0
100
AcDbLine
 10
1342.8282810951
 20
835.349164822
 30
0.0
 11
1342.8282810951
 21
958.4698676252
 31
0.0
  0
LINE
  5
1C9
330
1F
100
AcDbEntity
  8
0
  6
PHANTOM
 62
     8
370
     0
100
AcDbLine
 10
1342.8282810951
 20
835.349164822
 30
0.0
 11
1343.2524575496
 21
835.349164822
 31
0.0
  0
LINE
  5
1CA
330
1F
100
AcDbEntity
  8
0
  6
PHANTOM
 62
     8
370
     0
100
AcDbLine
 10
358.6866630817
 20
958.4698676252
 30
0.0
 11
359.1108395363
 21
958.4698676252
 31
0.0
  0
LINE
  5
1CB
330
1F
100
AcDbEntity
  8
0
  6
PHANTOM
 62
     8
370
     0
100
AcDbLine
 10
359.1108395363
 20
958.4698676252
 30
0.0
 11
359.1108395363
 21
835.349164822
 31
0.0
  0
LINE
  5
1CC
330
1F
100
AcDbEntity
  8
0
  6
PHANTOM
 62
     8
370
     0
100
AcDbLine
 10
358.6866630817
 20
835.349164822
 30
0.0
 11
359.1108395363
 21
835.349164822
 31
0.0
  0
LINE
  5
1CD
330
1F
100
AcDbEntity
  8
0
  6
PHANTOM
 62
     8
370
     0
100
AcDbLine
 10
359.9592222477
 20
959.7424156153
 30
0.0
 11
359.9592222477
 21
959.3182335728
 31
0.0
  0
SPLINE
  5
1CE
330
1F
100
AcDbEntity
  8
0
  6
PHANTOM
 62
     8
370
     0
100
AcDbSpline
210
0.0
220
0.0
230
1.0
 70
     8
 71
     3
 72
    14
 73
    10
 74
     0
 42
0.000000001
 43
0.00000001
 40
0.0
 40
0.0
 40
0.0
 40
0.0
 40
0.1656950488325304
 40
0.3584466336728401
 40
0.5178902597771075
 40
0.5538947665423014
 40
0.7491243734798623
 40
0.7716003209999248
 40
1.0
 40
1.0
 40
1.0
 40
1.0
 10
359.9592222476621
 20
959.3182335727774
 30
0.0
 10
359.8825820309845
 20
959.3203289405502
 30
0.0
 10
359.7167869280794
 20
959.3248618311208
 30
0.0
 10
359.482050478119
 20
959.2505327653997
 30
0.0
 10
359.3356861519988
 20
959.1391801935644
 30
0.0
 10
359.2173043365809
 20
959.0015324493687
 30
0.0
 10
359.162956964601
 20
958.892604964677
 30
0.0
 10
359.1080188657239
 20
958.693439255724
 30
0.0
 10
359.1094953396371
 20
958.57641116719
 30
0.0
 10
359.1108395362515
 20
958.4698676251733
 30
0.0
  0
LINE
  5
1CF
330
1F
100
AcDbEntity
  8
0
  6
PHANTOM
 62
     8
370
     0
100
AcDbLine
 10
1341.9798983837
 20
959.3182335728
 30
0.0
 11
359.9592222477
 21
959.3182335728
 31
0.0
  0
LINE
  5
1D0
330
1F
100
AcDbEntity
  8
0
  6
PHANTOM
 62
     8
370
     0
100
AcDbLine
 10
359.9592222477
 20
834.5007970118
 30
0.0
 11
1341.9798983837
 21
834.5007970118
 31
0.0
  0
LINE
  5
1D1
330
1F
100
AcDbEntity
  8
0
  6
PHANTOM
 62
     8
370
     0
100
AcDbLine
 10
1341.9798983837
 20
834.5007970118
 30
0.0
 11
1341.9798983837
 21
834.0766205572
 31
0.0
  0
LINE
  5
1D2
330
1F
100
AcDbEntity
  8
0
  6
PHANTOM
 62
     8
370
     0
100
AcDbLine
 10
359.9592222477
 20
834.5007970118
 30
0.0
 11
359.9592222477
 21
834.0766205572
 31
0.0
  0
SPLINE
  5
1D3
330
1F
100
AcDbEntity
  8
0
  6
PHANTOM
 62
     8
370
     0
100
AcDbSpline
210
0.0
220
0.0
230
1.0
 70
     8
 71
     3
 72
    14
 73
    10
 74
     0
 42
0.000000001
 43
0.00000001
 40
0.0
 40
0.0
 40
0.0
 40
0.0
 40
0.1656954725066038
 40
0.3584410965339988
 40
0.5178905422076656
 40
0.5538831699359829
 40
0.7491093668210291
 40
0.771585583141524
 40
1.0
 40
1.0
 40
1.0
 40
1.0
 10
359.1108395362515
 20
835.3491648220383
 30
0.0
 10
359.1087528768256
 20
835.2725246407275
 30
0.0
 10
359.104238906218
 20
835.1067325993877
 30
0.0
 10
359.1785302899406
 20
834.871995928227
 30
0.0
 10
359.2898655750645
 20
834.7256076719077
 30
0.0
 10
359.4275790680889
 20
834.6073075294877
 30
0.0
 10
359.5364805935839
 20
834.5529707578805
 30
0.0
 10
359.7356234832607
 20
834.4979246895789
 30
0.0
 10
359.8526655122865
 20
834.4994281970799
 30
0.0
 10
359.9592222476621
 20
834.500797011789
 30
0.0
  0
SPLINE
  5
1D4
330
1F
100
AcDbEntity
  8
0
  6
PHANTOM
 62
     8
370
     0
100
AcDbSpline
210
0.0
220
0.0
230
1.0
 70
     8
 71
     3
 72
    14
 73
    10
 74
     0
 42
0.000000001
 43
0.00000001
 40
0.0
 40
0.0
 40
0.0
 40
0.0
 40
0.1656951652119249
 40
0.358447254603933
 40
0.5178901473282012
 40
0.5538966982595442
 40
0.7491228430271917
 40
0.7715962344619925
 40
1.0
 40
1.0
 40
1.0
 40
1.0
 10
1341.979898383679
 20
834.500797011789
 30
0.0
 10
1342.056538770928
 20
834.4987021450913
 30
0.0
 10
1342.222334413583
 20
834.4941703338247
 30
0.0
 10
1342.457067715927
 20
834.5685034108567
 30
0.0
 10
1342.603438216666
 20
834.6798507195772
 30
0.0
 10
1342.721811122065
 20
834.8175048166086
 30
0.0
 10
1342.776161247586
 20
834.9264267429684
 30
0.0
 10
1342.831105533575
 20
835.1255896890135
 30
0.0
 10
1342.82962709564
 20
835.2426189532898
 30
0.0
 10
1342.828281095089
 20
835.3491648220383
 30
0.0
  0
LWPOLYLINE
  5
1D5
330
1F
100
AcDbEntity
  8
0
  6
PHANTOM
 62
     8
370
     0
100
AcDbPolyline
 90
        6
 70
   128
 43
0.0
 10
1336.0413684154
 20
952.5313134425
 10
1337.4497367645
 20
954.1408754074
 10
1338.8004972244
 20
955.6846077674
 10
1340.0384260917
 20
957.0993798905
 10
1341.1128594185
 20
958.3273287051
 10
1341.9798983837
 20
959.3182335728
  0
LWPOLYLINE
  5
1D6
330
1F
100
AcDbEntity
  8
0
  6
PHANTOM
 62
     8
370
     0
100
AcDbPolyline
 90
        6
 70
   128
 43
0.0
 10
1342.8282810951
 20
958.4698676252
 10
1341.837383678
 20
957.6028267973
 10
1340.6094087864
 20
956.5283711188
 10
1339.1946627403
 20
955.2904459768
 10
1337.6509322429
 20
953.939679929
 10
1336.0413684154
 20
952.5313134425
  0
LWPOLYLINE
  5
1D7
330
1F
100
AcDbEntity
  8
0
  6
PHANTOM
 62
     8
370
     0
100
AcDbPolyline
 90
        6
 70
   128
 43
0.0
 10
365.8977522159
 20
952.5313134425
 10
364.2881883884
 20
953.939679929
 10
362.744457891
 20
955.2904459768
 10
361.329711845
 20
956.5283711188
 10
360.1017369533
 20
957.6028267973
 10
359.1108395363
 20
958.4698676252
  0
LWPOLYLINE
  5
1D8
330
1F
100
AcDbEntity
  8
0
  6
PHANTOM
 62
     8
370
     0
100
AcDbPolyline
 90
        6
 70
   128
 43
0.0
 10
359.9592222477
 20
959.3182335728
 10
360.8262612129
 20
958.3273287051
 10
361.9006945396
 20
957.0993798905
 10
363.1386234069
 20
955.6846077674
 10
364.4893838668
 20
954.1408754074
 10
365.8977522159
 20
952.5313134425
  0
LWPOLYLINE
  5
1D9
330
1F
100
AcDbEntity
  8
0
  6
PHANTOM
 62
     8
370
     0
100
AcDbPolyline
 90
        6
 70
   128
 43
0.0
 10
365.8977522159
 20
841.2877245926
 10
364.4893838668
 20
839.6781607651
 10
363.1386234069
 20
838.1344302677
 10
361.9006945396
 20
836.7196544194
 10
360.8262612129
 20
835.49170933
 10
359.9592222477
 20
834.5007970118
  0
LWPOLYLINE
  5
1DA
330
1F
100
AcDbEntity
  8
0
  6
PHANTOM
 62
     8
370
     0
100
AcDbPolyline
 90
        6
 70
   128
 43
0.0
 10
359.1108395363
 20
835.349164822
 10
360.1017369533
 20
836.2162037873
 10
361.329711845
 20
837.2906669163
 10
362.744457891
 20
838.5285808825
 10
364.2881883884
 20
839.8793562435
 10
365.8977522159
 20
841.2877245926
  0
LWPOLYLINE
  5
1DB
330
1F
100
AcDbEntity
  8
0
  6
PHANTOM
 62
     8
370
     0
100
AcDbPolyline
 90
        6
 70
   128
 43
0.0
 10
1336.0413684154
 20
841.2877245926
 10
1337.6509322429
 20
839.8793562435
 10
1339.1946627403
 20
838.5285808825
 10
1340.6094087864
 20
837.2906669163
 10
1341.837383678
 20
836.2162037873
 10
1342.8282810951
 20
835.349164822
  0
LWPOLYLINE
  5
1DC
330
1F
100
AcDbEntity
  8
0
  6
PHANTOM
 62
     8
370
     0
100
AcDbPolyline
 90
        6
 70
   128
 43
0.0
 10
1341.9798983837
 20
834.5007970118
 10
1341.1128594185
 20
835.49170933
 10
1340.0384260917
 20
836.7196544194
 10
1338.8004972244
 20
838.1344302677
 10
1337.4497367645
 20
839.6781607651
 10
1336.0413684154
 20
841.2877245926
  0
LINE
  5
1DD
330
1F
100
AcDbEntity
  8
0
  6
PHANTOM
 62
     8
370
     0
100
AcDbLine
 10
365.8977522159
 20
841.2877245926
 30
0.0
 11
1336.0413684154
 21
841.2877245926
 31
0.0
  0
LINE
  5
1DE
330
1F
100
AcDbEntity
  8
0
  6
PHANTOM
 62
     8
370
     0
100
AcDbLine
 10
1336.0413684154
 20
841.2877245926
 30
0.0
 11
1336.0413684154
 21
952.5313134425
 31
0.0
  0
LINE
  5
1DF
330
1F
100
AcDbEntity
  8
0
  6
PHANTOM
 62
     8
370
     0
100
AcDbLine
 10
365.8977522159
 20
952.5313134425
 30
0.0
 11
365.8977522159
 21
841.2877245926
 31
0.0
  0
LINE
  5
1E0
330
1F
100
AcDbEntity
  8
0
  6
PHANTOM
 62
     8
370
     0
100
AcDbLine
 10
1336.0413684154
 20
952.5313134425
 30
0.0
 11
365.8977522159
 21
952.5313134425
 31
0.0
  0
ARC
  5
1E1
330
1F
100
AcDbEntity
  8
0
  6
PHANTOM
 62
     8
370
     0
100
AcDbCircle
 10
367.9695603157
 20
843.359516623
 30
0.0
 40
2.0
100
AcDbArc
 50
180.0
 51
270.0
  0
LINE
  5
1E2
330
1F
100
AcDbEntity
  8
0
  6
PHANTOM
 62
     8
370
     0
100
AcDbLine
 10
365.9695460106
 20
843.3595224404
 30
0.0
 11
366.9695629383
 21
843.3595224404
 31
0.0
  0
LINE
  5
1E3
330
1F
100
AcDbEntity
  8
0
  6
PHANTOM
 62
     8
370
     0
100
AcDbLine
 10
367.9695500637
 20
841.3595183873
 30
0.0
 11
367.9695500637
 21
842.3595204138
 31
0.0
  0
LINE
  5
1E4
330
1F
100
AcDbEntity
  8
0
  6
PHANTOM
 62
     8
370
     0
100
AcDbLine
 10
1333.9695705677
 20
841.3595183873
 30
0.0
 11
367.9695500637
 21
841.3595183873
 31
0.0
  0
ARC
  5
1E5
330
1F
100
AcDbEntity
  8
0
  6
PHANTOM
 62
     8
370
     0
100
AcDbCircle
 10
1333.9695603157
 20
843.359516623
 30
0.0
 40
2.0
100
AcDbArc
 50
270.0
 51
0.0
  0
LINE
  5
1E6
330
1F
100
AcDbEntity
  8
0
  6
PHANTOM
 62
     8
370
     0
100
AcDbLine
 10
1335.9695746208
 20
950.4595174574
 30
0.0
 11
1335.9695746208
 21
843.3595224404
 31
0.0
  0
ARC
  5
1E7
330
1F
100
AcDbEntity
  8
0
  6
PHANTOM
 62
     8
370
     0
100
AcDbCircle
 10
1333.9695603157
 20
950.459516623
 30
0.0
 40
2.0
100
AcDbArc
 50
0.0
 51
90.0
  0
LINE
  5
1E8
330
1F
100
AcDbEntity
  8
0
  6
PHANTOM
 62
     8
370
     0
100
AcDbLine
 10
367.9695500637
 20
952.4595159226
 30
0.0
 11
1333.9695705677
 21
952.4595159226
 31
0.0
  0
ARC
  5
1E9
330
1F
100
AcDbEntity
  8
0
  6
PHANTOM
 62
     8
370
     0
100
AcDbCircle
 10
367.9695603157
 20
950.459516623
 30
0.0
 40
2.0
100
AcDbArc
 50
90.0
 51
180.0
  0
LINE
  5
1EA
330
1F
100
AcDbEntity
  8
0
  6
PHANTOM
 62
     8
370
     0
100
AcDbLine
 10
365.9695460106
 20
843.3595224404
 30
0.0
 11
365.9695460106
 21
950.4595174574
 31
0.0
  0
LINE
  5
1EB
330
1F
100
AcDbEntity
  8
0
  6
PHANTOM
 62
     8
370
     0
100
AcDbLine
 10
1334.9695576931
 20
950.4595174574
 30
0.0
 11
1335.9695746208
 21
950.4595174574
 31
0.0
  0
LINE
  5
1EC
330
1F
100
AcDbEntity
  8
0
  6
PHANTOM
 62
     8
370
     0
100
AcDbLine
 10
1334.9695576931
 20
843.3595224404
 30
0.0
 11
1335.9695746208
 21
843.3595224404
 31
0.0
  0
LINE
  5
1ED
330
1F
100
AcDbEntity
  8
0
  6
PHANTOM
 62
     8
370
     0
100
AcDbLine
 10
1333.9695705677
 20
951.4595157587
 30
0.0
 11
1333.9695705677
 21
952.4595159226
 31
0.0
  0
LINE
  5
1EE
330
1F
100
AcDbEntity
  8
0
  6
PHANTOM
 62
     8
370
     0
100
AcDbLine
 10
367.9695500637
 20
951.4595157587
 30
0.0
 11
367.9695500637
 21
952.4595159226
 31
0.0
  0
LINE
  5
1EF
330
1F
100
AcDbEntity
  8
0
  6
PHANTOM
 62
     8
370
     0
100
AcDbLine
 10
365.9695460106
 20
950.4595174574
 30
0.0
 11
366.9695629383
 21
950.4595174574
 31
0.0
  0
LINE
  5
1F0
330
1F
100
AcDbEntity
  8
0
  6
PHANTOM
 62
     8
370
     0
100
AcDbLine
 10
1333.9695705677
 20
841.3595183873
 30
0.0
 11
1333.9695705677
 21
842.3595204138
 31
0.0
  0
LINE
  5
1F1
330
1F
100
AcDbEntity
  8
0
  6
PHANTOM
 62
     8
370
     0
100
AcDbLine
 10
367.9695500637
 20
950.4595174574
 30
0.0
 11
367.9695500637
 21
843.3595224404
 31
0.0
  0
LINE
  5
1F2
330
1F
100
AcDbEntity
  8
0
  6
PHANTOM
 62
     8
370
     0
100
AcDbLine
 10
367.9695500637
 20
843.3595224404
 30
0.0
 11
366.9695629383
 21
843.3595224404
 31
0.0
  0
LINE
  5
1F3
330
1F
100
AcDbEntity
  8
0
  6
PHANTOM
 62
     8
370
     0
100
AcDbLine
 10
367.9695500637
 20
950.4595174574
 30
0.0
 11
366.9695629383
 21
950.4595174574
 31
0.0
  0
LINE
  5
1F4
330
1F
100
AcDbEntity
  8
0
  6
PHANTOM
 62
     8
370
     0
100
AcDbLine
 10
367.9695500637
 20
951.4595157587
 30
0.0
 11
367.9695500637
 21
950.4595174574
 31
0.0
  0
LINE
  5
1F5
330
1F
100
AcDbEntity
  8
0
  6
PHANTOM
 62
     8
370
     0
100
AcDbLine
 10
1334.9695576931
 20
843.3595224404
 30
0.0
 11
1333.9695705677
 21
843.3595224404
 31
0.0
  0
LINE
  5
1F6
330
1F
100
AcDbEntity
  8
0
  6
PHANTOM
 62
     8
370
     0
100
AcDbLine
 10
1333.9695705677
 20
843.3595224404
 30
0.0
 11
1333.9695705677
 21
950.4595174574
 31
0.0
  0
LINE
  5
1F7
330
1F
100
AcDbEntity
  8
0
  6
PHANTOM
 62
     8
370
     0
100
AcDbLine
 10
1334.9695576931
 20
950.4595174574
 30
0.0
 11
1333.9695705677
 21
950.4595174574
 31
0.0
  0
LINE
  5
1F8
330
1F
100
AcDbEntity
  8
0
  6
PHANTOM
 62
     8
370
     0
100
AcDbLine
 10
1333.9695705677
 20
843.3595224404
 30
0.0
 11
1333.9695705677
 21
842.3595204138
 31
0.0
  0
LINE
  5
1F9
330
1F
100
AcDbEntity
  8
0
  6
PHANTOM
 62
     8
370
     0
100
AcDbLine
 10
1333.9695705677
 20
951.4595157587
 30
0.0
 11
1333.9695705677
 21
950.4595174574
 31
0.0
  0
LINE
  5
1FA
330
1F
100
AcDbEntity
  8
0
  6
PHANTOM
 62
     8
370
     0
100
AcDbLine
 10
367.9695500637
 20
843.3595224404
 30
0.0
 11
1333.9695705677
 21
843.3595224404
 31
0.0
  0
LINE
  5
1FB
330
1F
100
AcDbEntity
  8
0
  6
PHANTOM
 62
     8
370
     0
100
AcDbLine
 10
367.9695500637
 20
843.3595224404
 30
0.0
 11
367.9695500637
 21
842.3595204138
 31
0.0
  0
LINE
  5
1FC
330
1F
100
AcDbEntity
  8
0
  6
PHANTOM
 62
     8
370
     0
100
AcDbLine
 10
1333.9695705677
 20
950.4595174574
 30
0.0
 11
367.9695500637
 21
950.4595174574
 31
0.0
  0
SPLINE
  5
1FD
330
1F
100
AcDbEntity
  8
0
  6
Continuous
 62
     7
370
    15
100
AcDbSpline
210
0.0
220
0.0
230
1.0
 70
     8
 71
     3
 72
    15
 73
    11
 74
     0
 42
0.000000001
 43
0.00000001
 40
0.0
 40
0.0
 40
0.0
 40
0.0
 40
0.1368698300738488
 40
0.2743249299461156
 40
0.4112395460468652
 40
0.5476199084104948
 40
0.6834701604805173
 40
0.8187922475971275
 40
0.9535861797219216
 40
1.0
 40
1.0
 40
1.0
 40
1.0
 10
2013.895005383744
 20
796.8363835596406
 30
0.0
 10
2016.208961229727
 20
797.2995490137371
 30
0.0
 10
2020.846767640425
 20
798.2278604661584
 30
0.0
 10
2027.711909749717
 20
800.0104200890469
 30
0.0
 10
2034.488441966095
 20
802.0701947486657
 30
0.0
 10
2041.139200382367
 20
804.4252945046267
 30
0.0
 10
2047.657606888779
 20
807.0538902357844
 30
0.0
 10
2054.019200923437
 20
809.9727007559862
 30
0.0
 10
2058.905391675024
 20
812.4102313259473
 30
0.0
 10
2061.616734127208
 20
813.9620473892257
 30
0.0
 10
2062.311206408992
 20
814.3595232748353
 30
0.0
  0
SPLINE
  5
1FE
330
1F
100
AcDbEntity
  8
0
  6
Continuous
 62
     7
370
    15
100
AcDbSpline
210
0.0
220
0.0
230
1.0
 70
     8
 71
     3
 72
    13
 73
     9
 74
     0
 42
0.000000001
 43
0.00000001
 40
0.0
 40
0.0
 40
0.0
 40
0.0
 40
0.2198234452009014
 40
0.4337852202977196
 40
0.6201793574310139
 40
0.7819096621070921
 40
0.9185805196303041
 40
0.9999999999999999
 40
0.9999999999999999
 40
0.9999999999999999
 40
0.9999999999999999
 10
2011.61225365962
 20
794.3841292642915
 30
0.0
 10
2011.669349816623
 20
794.6392541319819
 30
0.0
 10
2011.782019641358
 20
795.1427008723122
 30
0.0
 10
2012.189223889294
 20
795.7674517130613
 30
0.0
 10
2012.662862475536
 20
796.2378089834103
 30
0.0
 10
2013.148833227945
 20
796.5465369999156
 30
0.0
 10
2013.563213176771
 20
796.7256112910503
 30
0.0
 10
2013.8144643173
 20
796.783420027683
 30
0.0
 10
2013.908263691917
 20
796.8050017141663
 30
0.0
  0
LINE
  5
1FF
330
1F
100
AcDbEntity
  8
0
  6
Continuous
 62
     7
370
    15
100
AcDbLine
 10
1951.0081749644
 20
773.5167666458
 30
0.0
 11
1952.1680850771
 21
766.938574531
 31
0.0
  0
LINE
  5
200
330
1F
100
AcDbEntity
  8
0
  6
Continuous
 62
     7
370
    15
100
AcDbLine
 10
2006.7574078452
 20
766.938574531
 30
0.0
 11
2011.5984402832
 21
794.3934275889
 31
0.0
  0
ARC
  5
201
330
1F
100
AcDbEntity
  8
0
  6
Continuous
 62
     7
370
    15
100
AcDbCircle
 10
2003.8029848757
 20
767.459516623
 30
0.0
 40
3.000000000000114
100
AcDbArc
 50
270.0
 51
350.0
  0
ARC
  5
202
330
1F
100
AcDbEntity
  8
0
  6
Continuous
 62
     7
370
    15
100
AcDbCircle
 10
1955.1225094281
 20
767.459516623
 30
0.0
 40
3.000000000000114
100
AcDbArc
 50
190.0
 51
270.0
  0
SPLINE
  5
203
330
1F
100
AcDbEntity
  8
0
  6
Continuous
 62
     7
370
    15
100
AcDbSpline
210
0.0
220
0.0
230
1.0
 70
     8
 71
     3
 72
    17
 73
    13
 74
     0
 42
0.000000001
 43
0.00000001
 40
0.0
 40
0.0
 40
0.0
 40
0.0
 40
0.0029741694650428
 40
0.0061639992336405
 40
0.0111421066520686
 40
0.0327791632471762
 40
0.1160174155505712
 40
0.2165278219893385
 40
0.4687503315754804
 40
0.6578336363702991
 40
0.869726558685743
 40
0.9999999999999999
 40
0.9999999999999999
 40
0.9999999999999999
 40
0.9999999999999999
 10
1948.533513047948
 20
775.9839370035493
 30
0.0
 10
1948.534619673533
 20
775.9837602810775
 30
0.0
 10
1948.536913167342
 20
775.983394021793
 30
0.0
 10
1948.546780871617
 20
775.9817576835497
 30
0.0
 10
1948.581517472904
 20
775.9758214407093
 30
0.0
 10
1948.717760574427
 20
775.9503593301487
 30
0.0
 10
1948.964214681773
 20
775.8871047262471
 30
0.0
 10
1949.472715407566
 20
775.6931056420254
 30
0.0
 10
1950.047572326007
 20
775.3141313243694
 30
0.0
 10
1950.573767695593
 20
774.690988201022
 30
0.0
 10
1950.897886863143
 20
774.0963790376989
 30
0.0
 10
1950.954066423295
 20
773.6720813621772
 30
0.0
 10
1950.975455739751
 20
773.5105379604661
 30
0.0
  0
ARC
  5
204
330
1F
100
AcDbEntity
  8
0
  6
Continuous
 62
     7
370
    15
100
AcDbCircle
 10
1798.3827395716
 20
810.299516623
 30
0.0
 40
4.969999999999871
100
AcDbArc
 50
311.8103148958
 51
0.0
  0
ARC
  5
205
330
1F
100
AcDbEntity
  8
0
  6
Continuous
 62
     7
370
    15
100
AcDbCircle
 10
1745.8427395716
 20
810.299516623
 30
0.0
 40
4.970000000000027
100
AcDbArc
 50
180.0
 51
228.1896851042
  0
ARC
  5
206
330
1F
100
AcDbEntity
  8
0
  6
Continuous
 62
     7
370
    15
100
AcDbCircle
 10
1799.0927395716
 20
810.299516623
 30
0.0
 40
4.259999999999867
100
AcDbArc
 50
0.0
 51
52.1776591166
  0
ARC
  5
207
330
1F
100
AcDbEntity
  8
0
  6
Continuous
 62
     7
370
    15
100
AcDbCircle
 10
1745.1327395716
 20
810.299516623
 30
0.0
 40
4.260000000000008
100
AcDbArc
 50
127.8223408834
 51
180.0
  0
ARC
  5
208
330
1F
100
AcDbEntity
  8
0
  6
Continuous
 62
     7
370
    15
100
AcDbCircle
 10
1742.2138356677
 20
814.059516623
 30
0.0
 40
0.5000000000000464
100
AcDbArc
 50
307.8223408834
 51
90.0
  0
ARC
  5
209
330
1F
100
AcDbEntity
  8
0
  6
Continuous
 62
     7
370
    15
100
AcDbCircle
 10
1802.0116434755
 20
814.059516623
 30
0.0
 40
0.5000000000000464
100
AcDbArc
 50
90.0
 51
232.1776591166
  0
ARC
  5
20A
330
1F
100
AcDbEntity
  8
0
  6
Continuous
 62
     7
370
    15
100
AcDbCircle
 10
1819.6827395716
 20
786.4853926626
 30
0.0
 40
26.97999999999993
100
AcDbArc
 50
131.8103148958
 51
180.0
  0
ARC
  5
20B
330
1F
100
AcDbEntity
  8
0
  6
Continuous
 62
     7
370
    15
100
AcDbCircle
 10
1724.5427395716
 20
786.4853926626
 30
0.0
 40
26.98000000000008
100
AcDbArc
 50
0.0
 51
48.1896851042
  0
ARC
  5
20C
330
1F
100
AcDbEntity
  8
0
  6
Continuous
 62
     7
370
    15
100
AcDbCircle
 10
1794.2905086818
 20
767.344516623
 30
0.0
 40
3.905000000000086
100
AcDbArc
 50
270.0
 51
22.3835237867
  0
ARC
  5
20D
330
1F
100
AcDbEntity
  8
0
  6
Continuous
 62
     7
370
    15
100
AcDbCircle
 10
1749.9349704613
 20
767.344516623
 30
0.0
 40
3.905000000000227
100
AcDbArc
 50
157.6164762133
 51
270.0
  0
ARC
  5
20E
330
1F
100
AcDbEntity
  8
0
  6
Continuous
 62
     7
370
    15
100
AcDbCircle
 10
1752.2327395716
 20
766.3982174547
 30
0.0
 40
6.390000000000042
100
AcDbArc
 50
146.796900802
 51
157.6164762133
  0
ARC
  5
20F
330
1F
100
AcDbEntity
  8
0
  6
Continuous
 62
     7
370
    15
100
AcDbCircle
 10
1791.9927395716
 20
766.3982174547
 30
0.0
 40
6.390000000000042
100
AcDbArc
 50
22.3835237867
 51
33.203099198
  0
ARC
  5
210
330
1F
100
AcDbEntity
  8
0
  6
Continuous
 62
     7
370
    15
100
AcDbCircle
 10
1793.1127395716
 20
754.6825352372
 30
0.0
 40
4.500000000000227
100
AcDbArc
 50
270.0
 51
0.0
  0
ARC
  5
211
330
1F
100
AcDbEntity
  8
0
  6
Continuous
 62
     7
370
    15
100
AcDbCircle
 10
1751.1127395716
 20
754.6825352372
 30
0.0
 40
4.500000000000227
100
AcDbArc
 50
180.0
 51
270.0
  0
ARC
  5
212
330
1F
100
AcDbEntity
  8
0
  6
Continuous
 62
     7
370
    15
100
AcDbCircle
 10
1793.1127395716
 20
754.6825352372
 30
0.0
 40
4.500000000000649
100
AcDbArc
 50
0.0
 51
86.1924001848
  0
ARC
  5
213
330
1F
100
AcDbEntity
  8
0
  6
Continuous
 62
     7
370
    15
100
AcDbCircle
 10
1751.1127395716
 20
754.6825352372
 30
0.0
 40
4.500000000000634
100
AcDbArc
 50
93.8075998152
 51
180.0
  0
ARC
  5
214
330
1F
100
AcDbEntity
  8
0
  6
Continuous
 62
     7
370
    15
100
AcDbCircle
 10
1821.1027395716
 20
785.449516623
 30
0.0
 40
28.40000000000009
100
AcDbArc
 50
180.0
 51
213.203099198
  0
ARC
  5
215
330
1F
100
AcDbEntity
  8
0
  6
Continuous
 62
     7
370
    15
100
AcDbCircle
 10
1723.1227395716
 20
785.449516623
 30
0.0
 40
28.40000000000009
100
AcDbArc
 50
326.796900802
 51
0.0
  0
ARC
  5
216
330
1F
100
AcDbEntity
  8
0
  6
Continuous
 62
     7
370
    15
100
AcDbCircle
 10
1793.5377395716
 20
761.539516623
 30
0.0
 40
1.900000000000091
100
AcDbArc
 50
90.0
 51
180.0
  0
ARC
  5
217
330
1F
100
AcDbEntity
  8
0
  6
Continuous
 62
     7
370
    15
100
AcDbCircle
 10
1750.6877395716
 20
761.539516623
 30
0.0
 40
1.900000000000091
100
AcDbArc
 50
0.0
 51
90.0
  0
ARC
  5
218
330
1F
100
AcDbEntity
  8
0
  6
Continuous
 62
     7
370
    15
100
AcDbCircle
 10
1750.6877395716
 20
761.0684083177
 30
0.0
 40
1.900000000000091
100
AcDbArc
 50
273.8075998157
 51
0.0
  0
ARC
  5
219
330
1F
100
AcDbEntity
  8
0
  6
Continuous
 62
     7
370
    15
100
AcDbCircle
 10
1793.5377395716
 20
761.0684083177
 30
0.0
 40
1.900000000000091
100
AcDbArc
 50
180.0
 51
266.1924001843
  0
LINE
  5
21A
330
1F
100
AcDbEntity
  8
0
  6
Continuous
 62
     7
370
    15
100
AcDbLine
 10
1751.1127408829
 20
750.1825316929
 30
0.0
 11
1755.8472123232
 21
207.6650782608
 31
0.0
  0
LINE
  5
21B
330
1F
100
AcDbEntity
  8
0
  6
Continuous
 62
     7
370
    15
100
AcDbLine
 10
1788.378265151
 20
207.6650782608
 30
0.0
 11
1793.1127365914
 21
750.1825316929
 31
0.0
  0
LINE
  5
21C
330
1F
100
AcDbEntity
  8
0
  6
Continuous
 62
     7
370
    15
100
AcDbLine
 10
1751.5227463331
 20
786.4853962445
 30
0.0
 11
1751.5227463331
 21
785.4495122217
 31
0.0
  0
LINE
  5
21D
330
1F
100
AcDbEntity
  8
0
  6
Continuous
 62
     7
370
    15
100
AcDbLine
 10
1792.7027460423
 20
785.4495122217
 30
0.0
 11
1792.7027460423
 21
786.4853962445
 31
0.0
  0
LINE
  5
21E
330
1F
100
AcDbEntity
  8
0
  6
Continuous
 62
     7
370
    15
100
AcDbLine
 10
1752.5877323237
 20
761.5395113015
 30
0.0
 11
1752.5877323237
 21
761.0684110903
 31
0.0
  0
LINE
  5
21F
330
1F
100
AcDbEntity
  8
0
  6
Continuous
 62
     7
370
    15
100
AcDbLine
 10
1791.6377451506
 20
761.0684110903
 30
0.0
 11
1791.6377451506
 21
761.5395113015
 31
0.0
  0
ARC
  5
220
330
1F
100
AcDbEntity
  8
0
  6
Continuous
 62
     7
370
    15
100
AcDbCircle
 10
1757.6127395716
 20
190.5173838473
 30
0.0
 40
3.5000000000001
100
AcDbArc
 50
105.2575232905
 51
180.0
  0
ARC
  5
221
330
1F
100
AcDbEntity
  8
0
  6
Continuous
 62
     7
370
    15
100
AcDbCircle
 10
1786.6127395716
 20
190.5173838473
 30
0.0
 40
3.500000000000227
100
AcDbArc
 50
0.0
 51
74.7424767095
  0
LINE
  5
222
330
1F
100
AcDbEntity
  8
0
  6
Continuous
 62
     7
370
    15
100
AcDbLine
 10
1754.1127469626
 20
190.5173584008
 30
0.0
 11
1754.1127469626
 21
190.1825591111
 31
0.0
  0
LINE
  5
223
330
1F
100
AcDbEntity
  8
0
  6
Continuous
 62
     7
370
    15
100
AcDbLine
 10
1790.1127454128
 20
190.1825591111
 30
0.0
 11
1790.1127454128
 21
190.5173584008
 31
0.0
  0
ARC
  5
224
330
1F
100
AcDbEntity
  8
0
  6
Continuous
 62
     7
370
    15
100
AcDbCircle
 10
1786.6127395716
 20
190.1825352372
 30
0.0
 40
3.500000000000227
100
AcDbArc
 50
270.0
 51
0.0
  0
ARC
  5
225
330
1F
100
AcDbEntity
  8
0
  6
Continuous
 62
     7
370
    15
100
AcDbCircle
 10
1757.6127395716
 20
190.1825352372
 30
0.0
 40
3.5
100
AcDbArc
 50
180.0
 51
270.0
  0
ARC
  5
226
330
1F
100
AcDbEntity
  8
0
  6
Continuous
 62
     7
370
    15
100
AcDbCircle
 10
1786.3783376383
 20
207.6825352372
 30
0.0
 40
2.000000000000095
100
AcDbArc
 50
289.9865925295
 51
359.5
  0
ARC
  5
227
330
1F
100
AcDbEntity
  8
0
  6
Continuous
 62
     7
370
    15
100
AcDbCircle
 10
1757.8471415048
 20
207.6825352372
 30
0.0
 40
2.000000000000125
100
AcDbArc
 50
180.5
 51
250.0134074705
  0
ARC
  5
228
330
1F
100
AcDbEntity
  8
0
  6
Continuous
 62
     7
370
    15
100
AcDbCircle
 10
1789.1127395716
 20
199.6825352372
 30
0.0
 40
6.000000000000001
100
AcDbArc
 50
180.0
 51
254.7424767095
  0
ARC
  5
229
330
1F
100
AcDbEntity
  8
0
  6
Continuous
 62
     7
370
    15
100
AcDbCircle
 10
1755.1127395716
 20
199.6825352372
 30
0.0
 40
6.000000000000001
100
AcDbArc
 50
285.2575232905
 51
0.0
  0
ARC
  5
22A
330
1F
100
AcDbEntity
  8
0
  6
Continuous
 62
     7
370
    15
100
AcDbCircle
 10
1789.1127395716
 20
200.1643542028
 30
0.0
 40
5.999999999999882
100
AcDbArc
 50
109.9865925295
 51
180.0
  0
ARC
  5
22B
330
1F
100
AcDbEntity
  8
0
  6
Continuous
 62
     7
370
    15
100
AcDbCircle
 10
1755.1127395716
 20
200.1643542028
 30
0.0
 40
6.0
100
AcDbArc
 50
0.0
 51
70.0134074705
  0
ARC
  5
22C
330
1F
100
AcDbEntity
  8
0
  6
Continuous
 62
     7
370
    15
100
AcDbCircle
 10
1786.5872218549
 20
186.1825352372
 30
0.0
 40
0.5000000000001413
100
AcDbArc
 50
90.0
 51
177.0
  0
ARC
  5
22D
330
1F
100
AcDbEntity
  8
0
  6
Continuous
 62
     7
370
    15
100
AcDbCircle
 10
1757.6382572882
 20
186.1825352372
 30
0.0
 40
0.5000000000003684
100
AcDbArc
 50
3.0
 51
90.0
  0
LINE
  5
22E
330
1F
100
AcDbEntity
  8
0
  6
Continuous
 62
     7
370
    15
100
AcDbLine
 10
1758.1375655022
 20
186.2087174439
 30
0.0
 11
1761.4171769705
 21
123.6302181267
 31
0.0
  0
LINE
  5
22F
330
1F
100
AcDbEntity
  8
0
  6
Continuous
 62
     7
370
    15
100
AcDbLine
 10
1782.8083005037
 20
123.6302181267
 30
0.0
 11
1786.0879119721
 21
186.2087174439
 31
0.0
  0
LINE
  5
230
330
1F
100
AcDbEntity
  8
0
  6
Continuous
 62
     7
370
    15
100
AcDbLine
 10
1761.1127462473
 20
200.1643701577
 30
0.0
 11
1761.1127462473
 21
199.6825262093
 31
0.0
  0
LINE
  5
231
330
1F
100
AcDbEntity
  8
0
  6
Continuous
 62
     7
370
    15
100
AcDbLine
 10
1783.1127461281
 20
199.6825262093
 30
0.0
 11
1783.1127461281
 21
200.1643701577
 31
0.0
  0
ARC
  5
232
330
1F
100
AcDbEntity
  8
0
  6
Continuous
 62
     7
370
    15
100
AcDbCircle
 10
1781.8096771308
 20
123.6825352372
 30
0.0
 40
1.0
100
AcDbArc
 50
270.0
 51
357.0
  0
ARC
  5
233
330
1F
100
AcDbEntity
  8
0
  6
Continuous
 62
     7
370
    15
100
AcDbCircle
 10
1762.4158020124
 20
123.6825352372
 30
0.0
 40
1.000000000000056
100
AcDbArc
 50
183.0
 51
270.0
  0
LINE
  5
234
330
1F
100
AcDbEntity
  8
0
  6
Continuous
 62
     7
370
    15
100
AcDbLine
 10
1979.462759034
 20
796.4595182919
 30
0.0
 11
1978.3109560844
 21
796.4595182919
 31
0.0
  0
SPLINE
  5
235
330
1F
100
AcDbEntity
  8
0
  6
Continuous
 62
     7
370
    15
100
AcDbSpline
210
0.0
220
0.0
230
1.0
 70
     8
 71
     3
 72
     9
 73
     5
 74
     0
 42
0.000000001
 43
0.00000001
 40
0.0
 40
0.0
 40
0.0
 40
0.0
 40
0.4970047637181606
 40
1.0
 40
1.0
 40
1.0
 40
1.0
 10
1970.825808518782
 20
796.6162189030015
 30
0.0
 10
1972.050760458093
 20
796.5714871752773
 30
0.0
 10
1974.515428865188
 20
796.4814845616411
 30
0.0
 10
1977.040737746796
 20
796.4668695653831
 30
0.0
 10
1978.310956084385
 20
796.459518291887
 30
0.0
  0
SPLINE
  5
236
330
1F
100
AcDbEntity
  8
0
  6
Continuous
 62
     7
370
    15
100
AcDbSpline
210
0.0
220
0.0
230
1.0
 70
     8
 71
     3
 72
     9
 73
     5
 74
     0
 42
0.000000001
 43
0.00000001
 40
0.0
 40
0.0
 40
0.0
 40
0.0
 40
0.4969940431058592
 40
1.0
 40
1.0
 40
1.0
 40
1.0
 10
1980.614462332084
 20
796.459518291887
 30
0.0
 10
1981.869536799555
 20
796.4667002884631
 30
0.0
 10
1984.3948678068
 20
796.481151159003
 30
0.0
 10
1986.859826320999
 20
796.5710162346396
 30
0.0
 10
1988.099715137138
 20
796.6162189030015
 30
0.0
  0
LINE
  5
237
330
1F
100
AcDbEntity
  8
0
  6
Continuous
 62
     7
370
    15
100
AcDbLine
 10
1980.6144623321
 20
796.4595182919
 30
0.0
 11
1979.462759034
 21
796.4595182919
 31
0.0
  0
SPLINE
  5
238
330
1F
100
AcDbEntity
  8
0
  6
Continuous
 62
     7
370
    15
100
AcDbSpline
210
0.0
220
0.0
230
1.0
 70
     8
 71
     3
 72
    13
 73
     9
 74
     0
 42
0.000000001
 43
0.00000001
 40
0.0
 40
0.0
 40
0.0
 40
0.0
 40
0.1653561525415728
 40
0.330672231757286
 40
0.5007573521247176
 40
0.6708425347687952
 40
0.8363202147255335
 40
0.9999999999999999
 40
0.9999999999999999
 40
0.9999999999999999
 40
0.9999999999999999
 10
1943.393242010131
 20
776.7806275867783
 30
0.0
 10
1938.446877410239
 20
777.7845845786609
 30
0.0
 10
1928.555346939847
 20
779.7922552579279
 30
0.0
 10
1913.941308950263
 20
784.3320195234737
 30
0.0
 10
1899.628642086217
 20
790.12148349068
 30
0.0
 10
1885.879231878669
 20
797.1510110119144
 30
0.0
 10
1872.888422947169
 20
805.1535912956446
 30
0.0
 10
1864.941522634396
 20
811.3020738469376
 30
0.0
 10
1860.98977590467
 20
814.3595232748353
 30
0.0
  0
LINE
  5
239
330
1F
100
AcDbEntity
  8
0
  6
Continuous
 62
     7
370
    15
100
AcDbLine
 10
2003.8029844176
 20
764.4595130467
 30
0.0
 11
1955.1225085046
 21
764.4595130467
 31
0.0
  0
ARC
  5
23A
330
1F
100
AcDbEntity
  8
0
  6
Continuous
 62
     7
370
    15
100
AcDbCircle
 10
1952.8531823049
 20
795.6159807159
 30
0.0
 40
19.99999999999998
100
AcDbArc
 50
263.9817705219
 51
270.6930414479
  0
ARC
  5
23B
330
1F
100
AcDbEntity
  8
0
  6
Continuous
 62
     7
370
    15
100
AcDbCircle
 10
1961.2407726608
 20
875.1750677394
 30
0.0
 40
100.0000000000001
100
AcDbArc
 50
259.7190359747
 51
263.9817705219
  0
LINE
  5
23C
330
1F
100
AcDbEntity
  8
0
  6
Continuous
 62
     7
370
    15
100
AcDbLine
 10
2304.9127426233
 20
978.6595166432
 30
0.0
 11
2304.9127426233
 21
815.5595137858
 31
0.0
  0
ARC
  5
23D
330
1F
100
AcDbEntity
  8
0
  6
Continuous
 62
     7
370
    15
100
AcDbCircle
 10
2303.9127395716
 20
815.559516623
 30
0.0
 40
1.000000000000114
100
AcDbArc
 50
270.0
 51
0.0
  0
LINE
  5
23E
330
1F
100
AcDbEntity
  8
0
  6
Continuous
 62
     7
370
    15
100
AcDbLine
 10
2303.9127256956
 20
814.5595117592
 30
0.0
 11
2245.9127273646
 21
814.5595117592
 31
0.0
  0
LWPOLYLINE
  5
23F
330
1F
100
AcDbEntity
  8
0
  6
Continuous
 62
     7
370
    15
100
AcDbPolyline
 90
        6
 70
   128
 43
0.0
 10
2245.1127436247
 20
979.459516623
 10
2245.2056374636
 20
979.3666234025
 10
2245.3571822729
 20
979.2150868514
 10
2245.5300655451
 20
979.0422000577
 10
2245.7176413622
 20
978.8546069529
 10
2245.9127273646
 20
978.6595166432
  0
ARC
  5
240
330
1F
100
AcDbEntity
  8
0
  6
Continuous
 62
     7
370
    15
100
AcDbCircle
 10
2303.9127395716
 20
978.659516623
 30
0.0
 40
1.0
100
AcDbArc
 50
0.0
 51
53.1301023542
  0
LINE
  5
241
330
1F
100
AcDbEntity
  8
0
  6
Continuous
 62
     7
370
    15
100
AcDbLine
 10
2244.9127402392
 20
815.5595137858
 30
0.0
 11
2244.9127402392
 21
979.459516623
 31
0.0
  0
ARC
  5
242
330
1F
100
AcDbEntity
  8
0
  6
Continuous
 62
     7
370
    15
100
AcDbCircle
 10
2245.9127395716
 20
815.559516623
 30
0.0
 40
1.000000000000455
100
AcDbArc
 50
180.0
 51
270.0
  0
ARC
  5
243
330
1F
100
AcDbEntity
  8
0
  6
Continuous
 62
     7
370
    15
100
AcDbCircle
 10
1803.1127395716
 20
978.559516623
 30
0.0
 40
1.000000000000227
100
AcDbArc
 50
0.0
 51
64.1580672368
  0
LINE
  5
244
330
1F
100
AcDbEntity
  8
0
  6
Continuous
 62
     7
370
    15
100
AcDbLine
 10
1804.1127439823
 20
978.5595166384
 30
0.0
 11
1804.1127439823
 21
815.5595137858
 31
0.0
  0
LINE
  5
245
330
1F
100
AcDbEntity
  8
0
  6
Continuous
 62
     7
370
    15
100
AcDbLine
 10
1803.1127419558
 20
814.5595117592
 30
0.0
 11
1772.1127387371
 21
814.5595117592
 31
0.0
  0
ARC
  5
246
330
1F
100
AcDbEntity
  8
0
  6
Continuous
 62
     7
370
    15
100
AcDbCircle
 10
1803.1127395716
 20
815.559516623
 30
0.0
 40
1.000000000000227
100
AcDbArc
 50
270.0
 51
0.0
  0
ARC
  5
247
330
1F
100
AcDbEntity
  8
0
  6
Continuous
 62
     7
370
    15
100
AcDbCircle
 10
1741.1127395716
 20
978.559516623
 30
0.0
 40
1.000000000000039
100
AcDbArc
 50
115.8419327632
 51
180.0
  0
LINE
  5
248
330
1F
100
AcDbEntity
  8
0
  6
Continuous
 62
     7
370
    15
100
AcDbLine
 10
1740.1127483931
 20
978.5595166384
 30
0.0
 11
1740.1127483931
 21
815.5595137858
 31
0.0
  0
LINE
  5
249
330
1F
100
AcDbEntity
  8
0
  6
Continuous
 62
     7
370
    15
100
AcDbLine
 10
1772.1127387371
 20
814.5595117592
 30
0.0
 11
1741.1127355185
 21
814.5595117592
 31
0.0
  0
ARC
  5
24A
330
1F
100
AcDbEntity
  8
0
  6
Continuous
 62
     7
370
    15
100
AcDbCircle
 10
1741.1127395716
 20
815.559516623
 30
0.0
 40
1.000000000000114
100
AcDbArc
 50
180.0
 51
270.0
  0
LINE
  5
24B
330
1F
100
AcDbEntity
  8
0
  6
Continuous
 62
     7
370
    15
100
AcDbLine
 10
1794.290509471
 20
763.4395136618
 30
0.0
 11
1749.9349680033
 21
763.4395136618
 31
0.0
  0
LINE
  5
24C
330
1F
100
AcDbEntity
  8
0
  6
Continuous
 62
     7
370
    15
100
AcDbLine
 10
1793.1127365914
 20
750.1825316929
 30
0.0
 11
1751.1127408829
 21
750.1825316929
 31
0.0
  0
LINE
  5
24D
330
1F
100
AcDbEntity
  8
0
  6
Continuous
 62
     7
370
    15
100
AcDbLine
 10
1786.6127457705
 20
186.6825147652
 30
0.0
 11
1757.6127466049
 21
186.6825147652
 31
0.0
  0
LINE
  5
24E
330
1F
100
AcDbEntity
  8
0
  6
Continuous
 62
     7
370
    15
100
AcDbLine
 10
1781.8096842852
 20
122.6825638794
 30
0.0
 11
1762.4158080902
 21
122.6825638794
 31
0.0
  0
LINE
  5
24F
330
1F
100
AcDbEntity
  8
0
  6
Continuous
 62
     7
370
    15
100
AcDbLine
 10
2305.1127460089
 20
1004.4595169955
 30
0.0
 11
2305.1127460089
 21
992.4595168912
 31
0.0
  0
LINE
  5
250
330
1F
100
AcDbEntity
  8
0
  6
Continuous
 62
     7
370
    15
100
AcDbLine
 10
1755.112734088
 20
1004.4595169955
 30
0.0
 11
1760.1127442207
 21
1004.4595169955
 31
0.0
  0
LINE
  5
251
330
1F
100
AcDbEntity
  8
0
  6
Continuous
 62
     7
370
    15
100
AcDbLine
 10
2305.1127460089
 20
1004.4595169955
 30
0.0
 11
1760.1127442207
 21
1004.4595169955
 31
0.0
  0
LINE
  5
252
330
1F
100
AcDbEntity
  8
0
  6
Continuous
 62
     7
370
    15
100
AcDbLine
 10
2305.1127460089
 20
992.4595168912
 30
0.0
 11
2305.1127460089
 21
991.4595167273
 31
0.0
  0
LINE
  5
253
330
1F
100
AcDbEntity
  8
0
  6
Continuous
 62
     7
370
    15
100
AcDbLine
 10
2305.1127460089
 20
979.459516623
 30
0.0
 11
1755.112734088
 21
979.459516623
 31
0.0
  0
LINE
  5
254
330
1F
100
AcDbEntity
  8
0
  6
Continuous
 62
     7
370
    15
100
AcDbLine
 10
2305.1127460089
 20
991.4595167273
 30
0.0
 11
2305.1127460089
 21
979.459516623
 31
0.0
  0
ARC
  5
255
330
1F
100
AcDbEntity
  8
0
  6
Continuous
 62
     7
370
    15
100
AcDbCircle
 10
1727.1127395716
 20
992.459516623
 30
0.0
 40
12.00000000000011
100
AcDbArc
 50
90.0
 51
180.0
  0
LINE
  5
256
330
1F
100
AcDbEntity
  8
0
  6
Continuous
 62
     7
370
    15
100
AcDbLine
 10
1727.112736949
 20
1004.4595169955
 30
0.0
 11
1755.112734088
 21
1004.4595169955
 31
0.0
  0
LINE
  5
257
330
1F
100
AcDbEntity
  8
0
  6
Continuous
 62
     7
370
    15
100
AcDbLine
 10
1715.1127424326
 20
991.4595167273
 30
0.0
 11
1715.1127424326
 21
992.4595168912
 31
0.0
  0
LINE
  5
258
330
1F
100
AcDbEntity
  8
0
  6
Continuous
 62
     7
370
    15
100
AcDbLine
 10
1755.112734088
 20
979.459516623
 30
0.0
 11
1727.112736949
 21
979.459516623
 31
0.0
  0
ARC
  5
259
330
1F
100
AcDbEntity
  8
0
  6
Continuous
 62
     7
370
    15
100
AcDbCircle
 10
1727.1127395716
 20
991.459516623
 30
0.0
 40
12.0
100
AcDbArc
 50
180.0
 51
270.0
  0
LINE
  5
25A
330
1F
100
AcDbEntity
  8
0
  6
Continuous
 62
     7
370
    15
100
AcDbLine
 10
2305.1127460089
 20
1016.6470184111
 30
0.0
 11
2305.1127460089
 21
1004.4595169955
 31
0.0
  0
ARC
  5
25B
330
1F
100
AcDbEntity
  8
0
  6
Continuous
 62
     7
370
    15
100
AcDbCircle
 10
1727.1127395716
 20
1017.459516623
 30
0.0
 40
12.99999999999989
100
AcDbArc
 50
270.0
 51
356.4166783015
  0
LINE
  5
25C
330
1F
100
AcDbEntity
  8
0
  6
Continuous
 62
     7
370
    15
100
AcDbLine
 10
1760.1127442207
 20
1019.4595157289
 30
0.0
 11
2305.1127460089
 21
1019.4595157289
 31
0.0
  0
LINE
  5
25D
330
1F
100
AcDbEntity
  8
0
  6
Continuous
 62
     7
370
    15
100
AcDbLine
 10
2305.1127460089
 20
1019.4595157289
 30
0.0
 11
2305.1127460089
 21
1016.6470184111
 31
0.0
  0
LINE
  5
25E
330
1F
100
AcDbEntity
  8
0
  6
Continuous
 62
     7
370
    15
100
AcDbLine
 10
1743.0814471331
 20
1019.4595157289
 30
0.0
 11
1760.1127442207
 21
1019.4595157289
 31
0.0
  0
ARC
  5
25F
330
1F
100
AcDbEntity
  8
0
  6
Continuous
 62
     7
370
    15
100
AcDbCircle
 10
1743.0814589943
 20
1016.459516623
 30
0.0
 40
3.00000000000006
100
AcDbArc
 50
90.0
 51
176.4166783015
  0
LINE
  5
260
330
1F
100
AcDbEntity
  8
0
  6
Continuous
 62
     7
370
    15
100
AcDbLine
 10
1804.3127324667
 20
819.559521892
 30
0.0
 11
1804.1127439823
 21
819.559521892
 31
0.0
  0
LINE
  5
261
330
1F
100
AcDbEntity
  8
0
  6
Continuous
 62
     7
370
    15
100
AcDbLine
 10
2244.9127402392
 20
815.5595137858
 30
0.0
 11
2244.9127402392
 21
815.3595104002
 31
0.0
  0
LINE
  5
262
330
1F
100
AcDbEntity
  8
0
  6
Continuous
 62
     7
370
    15
100
AcDbLine
 10
1804.3127324667
 20
819.559521892
 30
0.0
 11
1804.3127324667
 21
815.3595104002
 31
0.0
  0
LINE
  5
263
330
1F
100
AcDbEntity
  8
0
  6
Continuous
 62
     7
370
    15
100
AcDbLine
 10
2244.9127402392
 20
814.3595232748
 30
0.0
 11
1804.3127324667
 21
814.3595232748
 31
0.0
  0
LINE
  5
264
330
1F
100
AcDbEntity
  8
0
  6
Continuous
 62
     7
370
    15
100
AcDbLine
 10
1804.3127324667
 20
814.3595232748
 30
0.0
 11
1804.3127324667
 21
815.3595104002
 31
0.0
  0
LINE
  5
265
330
1F
100
AcDbEntity
  8
0
  6
Continuous
 62
     7
370
    15
100
AcDbLine
 10
2244.9127402392
 20
815.3595104002
 30
0.0
 11
2244.9127402392
 21
814.3595232748
 31
0.0
  0
LINE
  5
266
330
1F
100
AcDbEntity
  8
0
  6
Continuous
 62
     7
370
    15
100
AcDbLine
 10
1832.1127411213
 20
842.3595204138
 30
0.0
 11
2216.1127444592
 21
842.3595204138
 31
0.0
  0
ARC
  5
267
330
1F
100
AcDbEntity
  8
0
  6
Continuous
 62
     7
370
    15
100
AcDbCircle
 10
2216.1127395716
 20
843.359516623
 30
0.0
 40
1.0
100
AcDbArc
 50
270.0
 51
0.0
  0
ARC
  5
268
330
1F
100
AcDbEntity
  8
0
  6
Continuous
 62
     7
370
    15
100
AcDbCircle
 10
2216.1127395716
 20
950.459516623
 30
0.0
 40
1.0
100
AcDbArc
 50
0.0
 51
90.0
  0
LINE
  5
269
330
1F
100
AcDbEntity
  8
0
  6
Continuous
 62
     7
370
    15
100
AcDbLine
 10
2216.1127444592
 20
951.4595157587
 30
0.0
 11
1832.1127411213
 21
951.4595157587
 31
0.0
  0
LINE
  5
26A
330
1F
100
AcDbEntity
  8
0
  6
Continuous
 62
     7
370
    15
100
AcDbLine
 10
2217.1127464857
 20
843.3595224404
 30
0.0
 11
2217.1127464857
 21
950.4595174574
 31
0.0
  0
ARC
  5
26B
330
1F
100
AcDbEntity
  8
0
  6
Continuous
 62
     7
370
    15
100
AcDbCircle
 10
1832.1127395716
 20
843.359516623
 30
0.0
 40
1.000000000000227
100
AcDbArc
 50
180.0
 51
270.0
  0
LINE
  5
26C
330
1F
100
AcDbEntity
  8
0
  6
Continuous
 62
     7
370
    15
100
AcDbLine
 10
1831.1127390947
 20
950.4595174574
 30
0.0
 11
1831.1127390947
 21
843.3595224404
 31
0.0
  0
ARC
  5
26D
330
1F
100
AcDbEntity
  8
0
  6
Continuous
 62
     7
370
    15
100
AcDbCircle
 10
1832.1127395716
 20
950.459516623
 30
0.0
 40
1.000000000000227
100
AcDbArc
 50
90.0
 51
180.0
  0
SPLINE
  5
26E
330
1F
100
AcDbEntity
  8
0
  6
PHANTOM
 62
     8
370
     0
100
AcDbSpline
210
0.0
220
0.0
230
1.0
 70
     8
 71
     3
 72
    14
 73
    10
 74
     0
 42
0.000000001
 43
0.00000001
 40
0.0
 40
0.0
 40
0.0
 40
0.0
 40
0.0370703450285221
 40
0.1973752925144136
 40
0.3588552695282394
 40
0.5192451672323102
 40
0.6789884599664721
 40
0.8389657024302579
 40
1.0
 40
1.0
 40
1.0
 40
1.0
 10
2040.96498379971
 20
814.3595232748353
 30
0.0
 10
2040.270973205781
 20
813.8940214164439
 30
0.0
 10
2036.57582162628
 20
811.415529096092
 30
0.0
 10
2029.504841334104
 20
807.7916845196067
 30
0.0
 10
2019.830735585874
 20
803.5764969765893
 30
0.0
 10
2009.912096506411
 20
800.3741566206984
 30
0.0
 10
1999.868927647853
 20
798.1123172612732
 30
0.0
 10
1989.704508890403
 20
796.7144579084766
 30
0.0
 10
1982.884161866163
 20
796.5446845123533
 30
0.0
 10
1979.462759033992
 20
796.459518291887
 30
0.0
  0
SPLINE
  5
26F
330
1F
100
AcDbEntity
  8
0
  6
PHANTOM
 62
     8
370
     0
100
AcDbSpline
210
0.0
220
0.0
230
1.0
 70
     8
 71
     3
 72
    14
 73
    10
 74
     0
 42
0.000000001
 43
0.00000001
 40
0.0
 40
0.0
 40
0.0
 40
0.0
 40
0.0370786623542259
 40
0.1973822730979834
 40
0.3588608506464374
 40
0.5192492767487807
 40
0.6789912154763559
 40
0.8389671172492686
 40
1.0
 40
1.0
 40
1.0
 40
1.0
 10
1917.962674447551
 20
814.3595232748353
 30
0.0
 10
1918.65681831055
 20
813.8939145174622
 30
0.0
 10
1922.351981103288
 20
811.4153214650315
 30
0.0
 10
1929.422838455322
 20
807.7914325714336
 30
0.0
 10
1939.096541073683
 20
803.5762991213069
 30
0.0
 10
1949.014760049372
 20
800.3740407555892
 30
0.0
 10
1959.057488316763
 20
798.112258530184
 30
0.0
 10
1969.221464416861
 20
796.7144505437532
 30
0.0
 10
1976.041508741209
 20
796.5446820406066
 30
0.0
 10
1979.462759033992
 20
796.459518291887
 30
0.0
  0
ARC
  5
270
330
1F
100
AcDbEntity
  8
0
  6
PHANTOM
 62
     8
370
     0
100
AcDbCircle
 10
1977.8671448681
 20
950.5454747926
 30
0.0
 40
154.0902210923886
100
AcDbArc
 50
242.1050146973
 51
267.3808889983
  0
ARC
  5
271
330
1F
100
AcDbEntity
  8
0
  6
PHANTOM
 62
     8
370
     0
100
AcDbCircle
 10
1981.0582782816
 20
950.5456464988
 30
0.0
 40
154.0903972120515
100
AcDbArc
 50
272.6191454166
 51
297.8949725463
  0
SPLINE
  5
272
330
1F
100
AcDbEntity
  8
0
  6
PHANTOM
 62
     8
370
     0
100
AcDbSpline
210
0.0
220
0.0
230
1.0
 70
     8
 71
     3
 72
    11
 73
     7
 74
     0
 42
0.000000001
 43
0.00000001
 40
0.0
 40
0.0
 40
0.0
 40
0.0
 40
0.2971657585603646
 40
0.6040380261758181
 40
0.8011287049325001
 40
1.0
 40
1.0
 40
1.0
 40
1.0
 10
1953.362133749976
 20
796.8113049053513
 30
0.0
 10
1954.804920470854
 20
796.807184956378
 30
0.0
 10
1957.737620548055
 20
796.7988104859887
 30
0.0
 10
1962.476383416018
 20
796.7710828345333
 30
0.0
 10
1966.901088942136
 20
796.7351131171557
 30
0.0
 10
1969.513652481446
 20
796.6559689431917
 30
0.0
 10
1970.825808518782
 20
796.6162189030015
 30
0.0
  0
SPLINE
  5
273
330
1F
100
AcDbEntity
  8
0
  6
PHANTOM
 62
     8
370
     0
100
AcDbSpline
210
0.0
220
0.0
230
1.0
 70
     8
 71
     3
 72
    12
 73
     8
 74
     0
 42
0.000000001
 43
0.00000001
 40
0.0
 40
0.0
 40
0.0
 40
0.0
 40
0.0176960053274946
 40
0.2528284140141999
 40
0.5017185517413716
 40
0.7511097588488608
 40
1.0
 40
1.0
 40
1.0
 40
1.0
 10
1899.331916519656
 20
814.3595232748353
 30
0.0
 10
1899.622221977184
 20
814.1886401124123
 30
0.0
 10
1903.769907686366
 20
811.7471784300947
 30
0.0
 10
1912.524552976799
 20
807.8458754154727
 30
0.0
 10
1925.577054214629
 20
802.8971933978805
 30
0.0
 10
1939.314178171541
 20
799.0802878891013
 30
0.0
 10
1948.682621529218
 20
797.567125461721
 30
0.0
 10
1953.362133749976
 20
796.8113049053513
 30
0.0
  0
SPLINE
  5
274
330
1F
100
AcDbEntity
  8
0
  6
PHANTOM
 62
     8
370
     0
100
AcDbSpline
210
0.0
220
0.0
230
1.0
 70
     8
 71
     3
 72
    15
 73
    11
 74
     0
 42
0.000000001
 43
0.00000001
 40
0.0
 40
0.0
 40
0.0
 40
0.0
 40
0.1440550362850486
 40
0.2879026903744751
 40
0.4329729434713172
 40
0.5780196752267496
 40
0.7070706490273638
 40
0.8361194756848609
 40
0.963594099815362
 40
1.0
 40
1.0
 40
1.0
 40
1.0
 10
1988.099715137138
 20
796.6162189030015
 30
0.0
 10
1990.165598899932
 20
796.6739889562815
 30
0.0
 10
1994.294392371147
 20
796.7894458968461
 30
0.0
 10
1999.980028134695
 20
796.7848978842488
 30
0.0
 10
2004.941406812778
 20
796.8130502968916
 30
0.0
 10
2008.848174864589
 20
796.8189549419834
 30
0.0
 10
2011.649708511705
 20
796.8250638447073
 30
0.0
 10
2013.33811397503
 20
796.8275808602879
 30
0.0
 10
2014.070917448936
 20
796.8287568256665
 30
0.0
 10
2013.928340250201
 20
796.8285351821098
 30
0.0
 10
2013.896666863217
 20
796.8284859442078
 30
0.0
  0
ARC
  5
275
330
1F
100
AcDbEntity
  8
0
  6
PHANTOM
 62
     8
370
     0
100
AcDbCircle
 10
1990.440824432
 20
794.7273079966
 30
0.0
 40
3.008118538715144
100
AcDbArc
 50
141.1018700386
 51
191.2567065262
  0
SPLINE
  5
276
330
1F
100
AcDbEntity
  8
0
  6
PHANTOM
 62
     8
370
     0
100
AcDbSpline
210
0.0
220
0.0
230
1.0
 70
     8
 71
     3
 72
     9
 73
     5
 74
     0
 42
0.000000001
 43
0.00000001
 40
0.0
 40
0.0
 40
0.0
 40
0.0
 40
0.4970633277637421
 40
0.9999999999999999
 40
0.9999999999999999
 40
0.9999999999999999
 40
0.9999999999999999
 10
1987.490574759647
 20
794.140107848581
 30
0.0
 10
1986.348540792782
 20
794.0945119337725
 30
0.0
 10
1984.050978484168
 20
794.0027813387727
 30
0.0
 10
1981.699789893971
 20
793.9879273987265
 30
0.0
 10
1980.517290928617
 20
793.9804568075501
 30
0.0
  0
ARC
  5
277
330
1F
100
AcDbEntity
  8
0
  6
PHANTOM
 62
     8
370
     0
100
AcDbCircle
 10
1998.1666793493
 20
794.5300915092
 30
0.0
 40
17.65794466885974
100
AcDbArc
 50
173.7269495244
 51
181.7837204017
  0
ARC
  5
278
330
1F
100
AcDbEntity
  8
0
  6
PHANTOM
 62
     8
370
     0
100
AcDbCircle
 10
1960.7599881512
 20
794.5301006895
 30
0.0
 40
17.65670206117294
100
AcDbArc
 50
358.2161242222
 51
6.2734637508
  0
SPLINE
  5
279
330
1F
100
AcDbEntity
  8
0
  6
PHANTOM
 62
     8
370
     0
100
AcDbSpline
210
0.0
220
0.0
230
1.0
 70
     8
 71
     3
 72
     9
 73
     5
 74
     0
 42
0.000000001
 43
0.00000001
 40
0.0
 40
0.0
 40
0.0
 40
0.0
 40
0.4970594034157245
 40
1.0
 40
1.0
 40
1.0
 40
1.0
 10
1978.408133075788
 20
793.9804568075501
 30
0.0
 10
1977.239477565793
 20
793.9877588039616
 30
0.0
 10
1974.888339046002
 20
794.0024491938049
 30
0.0
 10
1972.590583770833
 20
794.094032157182
 30
0.0
 10
1971.434949361935
 20
794.1400929474198
 30
0.0
  0
ARC
  5
27A
330
1F
100
AcDbEntity
  8
0
  6
PHANTOM
 62
     8
370
     0
100
AcDbCircle
 10
1968.4846684099
 20
794.7272963275
 30
0.0
 40
3.00814984757096
100
AcDbArc
 50
348.7433493951
 51
38.897934394
  0
LINE
  5
27B
330
1F
100
AcDbEntity
  8
0
  6
PHANTOM
 62
     8
370
     0
100
AcDbLine
 10
1980.5172909286
 20
793.9804568076
 30
0.0
 11
1978.4081330758
 21
793.9804568076
 31
0.0
  0
SPLINE
  5
27C
330
1F
100
AcDbEntity
  8
0
  6
PHANTOM
 62
     8
370
     0
100
AcDbSpline
210
0.0
220
0.0
230
1.0
 70
     8
 71
     3
 72
    11
 73
     7
 74
     0
 42
0.000000001
 43
0.00000001
 40
0.0
 40
0.0
 40
0.0
 40
0.0
 40
0.2707068791504786
 40
0.5494473108703165
 40
0.7726268692655852
 40
0.9999999999999999
 40
0.9999999999999999
 40
0.9999999999999999
 40
0.9999999999999999
 10
1971.434949361935
 20
794.1400929474198
 30
0.0
 10
1969.759971028235
 20
794.19520257019
 30
0.0
 10
1966.360307362113
 20
794.3070572601376
 30
0.0
 10
1961.981556097408
 20
794.338228057611
 30
0.0
 10
1958.197973811843
 20
794.3651900083208
 30
0.0
 10
1956.203076357368
 20
794.3734295423134
 30
0.0
 10
1955.196343758359
 20
794.3775876545274
 30
0.0
  0
ARC
  5
27D
330
1F
100
AcDbEntity
  8
0
  6
PHANTOM
 62
     8
370
     0
100
AcDbCircle
 10
1952.4766670358
 20
794.2359092167
 30
0.0
 40
2.723364510135113
100
AcDbArc
 50
2.9820622886
 51
71.026121423
  0
SPLINE
  5
27E
330
1F
100
AcDbEntity
  8
0
  6
PHANTOM
 62
     8
370
     0
100
AcDbSpline
210
0.0
220
0.0
230
1.0
 70
     8
 71
     3
 72
    16
 73
    12
 74
     0
 42
0.000000001
 43
0.00000001
 40
0.0
 40
0.0
 40
0.0
 40
0.0
 40
0.0143771765691014
 40
0.1404283777600257
 40
0.2701353265283992
 40
0.3961842036638791
 40
0.5258916174051924
 40
0.6518868444577607
 40
0.7815509402180458
 40
0.889587292252701
 40
1.0
 40
1.0
 40
1.0
 40
1.0
 10
2011.553546809807
 20
794.4010420822465
 30
0.0
 10
2011.568770030769
 20
794.4010753428572
 30
0.0
 10
2011.717462106282
 20
794.401400214266
 30
0.0
 10
2011.136009308648
 20
794.400121133819
 30
0.0
 10
2009.767208008038
 20
794.3969068247349
 30
0.0
 10
2007.426846603337
 20
794.3907435024211
 30
0.0
 10
2004.342533262573
 20
794.3804456856636
 30
0.0
 10
2000.51553601846
 20
794.3646322641229
 30
0.0
 10
1996.332035773544
 20
794.3336764755761
 30
0.0
 10
1991.943825576742
 20
794.2923396718058
 30
0.0
 10
1988.9857180981
 20
794.1912184654639
 30
0.0
 10
1987.490574759647
 20
794.140107848581
 30
0.0
  0
LINE
  5
27F
330
1F
100
AcDbEntity
  8
0
  6
PHANTOM
 62
     8
370
     0
100
AcDbLine
 10
1955.6134570625
 20
773.1386049771
 30
0.0
 11
1953.1754333761
 21
773.2636853241
 31
0.0
  0
SPLINE
  5
280
330
1F
100
AcDbEntity
  8
0
  6
PHANTOM
 62
     8
370
     0
100
AcDbSpline
210
0.0
220
0.0
230
1.0
 70
     8
 71
     3
 72
    13
 73
     9
 74
     0
 42
0.000000001
 43
0.00000001
 40
0.0
 40
0.0
 40
0.0
 40
0.0
 40
0.114254177972295
 40
0.3333340438561635
 40
0.5251289667076606
 40
0.6875469748488737
 40
0.8426604018862508
 40
0.9999999999999999
 40
0.9999999999999999
 40
0.9999999999999999
 40
0.9999999999999999
 10
1955.613457062497
 20
773.1386049770676
 30
0.0
 10
1955.821085340646
 20
773.1624046735374
 30
0.0
 10
1956.426836261992
 20
773.231839762981
 30
0.0
 10
1957.357329954518
 20
773.8868109871795
 30
0.0
 10
1958.19159372712
 20
775.0861966671279
 30
0.0
 10
1958.68528586507
 20
776.4786408521809
 30
0.0
 10
1958.885680687728
 20
777.9837640607158
 30
0.0
 10
1958.713546861107
 20
779.0200120986341
 30
0.0
 10
1958.626866736665
 20
779.5418276571595
 30
0.0
  0
SPLINE
  5
281
330
1F
100
AcDbEntity
  8
0
  6
PHANTOM
 62
     8
370
     0
100
AcDbSpline
210
0.0
220
0.0
230
1.0
 70
     8
 71
     3
 72
     9
 73
     5
 74
     0
 42
0.000000001
 43
0.00000001
 40
0.0
 40
0.0
 40
0.0
 40
0.0
 40
0.525077396783558
 40
1.0
 40
1.0
 40
1.0
 40
1.0
 10
1955.196343758359
 20
794.3775876545274
 30
0.0
 10
1955.78467207489
 20
791.7781304205735
 30
0.0
 10
1956.905132258731
 20
786.8275131403832
 30
0.0
 10
1958.072471123956
 20
781.8878061568877
 30
0.0
 10
1958.626866736665
 20
779.5418276571595
 30
0.0
  0
SPLINE
  5
282
330
1F
100
AcDbEntity
  8
0
  6
PHANTOM
 62
     8
370
     0
100
AcDbSpline
210
0.0
220
0.0
230
1.0
 70
     8
 71
     3
 72
    10
 73
     6
 74
     0
 42
0.000000001
 43
0.00000001
 40
0.0
 40
0.0
 40
0.0
 40
0.0
 40
0.41725281458515
 40
0.8465727815950904
 40
1.0
 40
1.0
 40
1.0
 40
1.0
 10
1953.175433376088
 20
773.2636853241288
 30
0.0
 10
1952.657685614775
 20
773.3271428386588
 30
0.0
 10
1951.607216577447
 20
773.4558930896119
 30
0.0
 10
1950.982976618286
 20
773.5473527145197
 30
0.0
 10
1951.069763036815
 20
773.5349249266883
 30
0.0
 10
1951.092612394347
 20
773.5316529058778
 30
0.0
  0
LINE
  5
283
330
1F
100
AcDbEntity
  8
0
  6
PHANTOM
 62
     8
370
     0
100
AcDbLine
 10
1952.1680850771
 20
766.938574531
 30
0.0
 11
2006.7574078452
 21
766.938574531
 31
0.0
  0
SPLINE
  5
284
330
1F
100
AcDbEntity
  8
0
  6
PHANTOM
 62
     8
370
     0
100
AcDbSpline
210
0.0
220
0.0
230
1.0
 70
     8
 71
     3
 72
    12
 73
     8
 74
     0
 42
0.000000001
 43
0.00000001
 40
0.0
 40
0.0
 40
0.0
 40
0.0
 40
0.2177123657178085
 40
0.4330837503481456
 40
0.6492273002988841
 40
0.8653713106656103
 40
1.0
 40
1.0
 40
1.0
 40
1.0
 10
1952.965196618095
 20
793.8566430591904
 30
0.0
 10
1948.418549355689
 20
794.5815550051924
 30
0.0
 10
1939.374143258586
 20
796.0235841853522
 30
0.0
 10
1926.107751435166
 20
799.636195530546
 30
0.0
 10
1913.233229603303
 20
804.3026555948029
 30
0.0
 10
1902.263728497112
 20
809.1907769590265
 30
0.0
 10
1895.85601959473
 20
812.9259436483287
 30
0.0
 10
1893.39670205976
 20
814.3595232748353
 30
0.0
  0
LWPOLYLINE
  5
285
330
1F
100
AcDbEntity
  8
0
  6
PHANTOM
 62
     8
370
     0
100
AcDbPolyline
 90
        9
 70
   128
 43
0.0
 10
1953.36213375
 20
796.8113049054
 10
1953.3474561062
 20
796.7020495915
 10
1953.3201012995
 20
796.4984401249
 10
1953.2809820261
 20
796.2072416329
 10
1953.2313909617
 20
795.8380951666
 10
1953.1729709592
 20
795.4032494807
 10
1953.107662895
 20
794.9171139979
 10
1953.0376311627
 20
794.3958117747
 10
1952.9651966181
 20
793.8566430592
  0
SPLINE
  5
286
330
1F
100
AcDbEntity
  8
0
  6
PHANTOM
 62
     8
370
     0
100
AcDbSpline
210
0.0
220
0.0
230
1.0
 70
     8
 71
     3
 72
    13
 73
     9
 74
     0
 42
0.000000001
 43
0.00000001
 40
0.0
 40
0.0
 40
0.0
 40
0.0
 40
0.1232133828494386
 40
0.298485596241963
 40
0.473513819896239
 40
0.6491713680484151
 40
0.8248893049260835
 40
0.9999999999999999
 40
0.9999999999999999
 40
0.9999999999999999
 40
0.9999999999999999
 10
1866.048273095145
 20
814.3595232748353
 30
0.0
 10
1868.846116105787
 20
812.1959799158565
 30
0.0
 10
1875.623917509417
 20
806.9547754738907
 30
0.0
 10
1887.23316365855
 20
799.8425132662576
 30
0.0
 10
1900.682783727954
 20
792.9679464103558
 30
0.0
 10
1914.713025509418
 20
787.332566307436
 30
0.0
 10
1929.14019208844
 20
782.7749914036525
 30
0.0
 10
1939.004866753781
 20
780.745464988083
 30
0.0
 10
1943.928666808858
 20
779.7324582123124
 30
0.0
  0
LWPOLYLINE
  5
287
330
1F
100
AcDbEntity
  8
0
  6
PHANTOM
 62
     8
370
     0
100
AcDbPolyline
 90
        9
 70
   128
 43
0.0
 10
1943.9286668089
 20
779.7324582123
 10
1943.8242096689
 20
779.1565879368
 10
1943.7237683919
 20
778.6028458857
 10
1943.6311986532
 20
778.0925109171
 10
1943.5500618305
 20
777.6452078604
 10
1943.4834759917
 20
777.2781028532
 10
1943.433996686
 20
777.0053221964
 10
1943.4035275366
 20
776.8373414063
 10
1943.3932420101
 20
776.7806275868
  0
LWPOLYLINE
  5
288
330
1F
100
AcDbEntity
  8
0
  6
PHANTOM
 62
     8
370
     0
100
AcDbPolyline
 90
        9
 70
   128
 43
0.0
 10
1955.1963437584
 20
794.3775876545
 10
1954.978723475
 20
794.3267746949
 10
1954.7373656418
 20
794.2704185032
 10
1954.4751126554
 20
794.2091896319
 10
1954.1950602319
 20
794.1438033366
 10
1953.9005089786
 20
794.0750344776
 10
1953.5949345913
 20
794.0036877179
 10
1953.2819319751
 20
793.9305975222
 10
1952.9651966181
 20
793.8566430592
  0
ARC
  5
289
330
1F
100
AcDbEntity
  8
0
  6
PHANTOM
 62
     8
370
     0
100
AcDbCircle
 10
1952.9227456018
 20
772.9236682561
 30
0.0
 40
2.699282489643602
100
AcDbArc
 50
4.5671463321
 51
86.3391959397
  0
SPLINE
  5
28A
330
1F
100
AcDbEntity
  8
0
  6
PHANTOM
 62
     8
370
     0
100
AcDbSpline
210
0.0
220
0.0
230
1.0
 70
     8
 71
     3
 72
    14
 73
    10
 74
     0
 42
0.000000001
 43
0.00000001
 40
0.0
 40
0.0
 40
0.0
 40
0.0
 40
0.0790086251644383
 40
0.1277179568599361
 40
0.2662694023731342
 40
0.4270901000749749
 40
0.6310111332739616
 40
0.8730934408602744
 40
0.9999999999999999
 40
0.9999999999999999
 40
0.9999999999999999
 40
0.9999999999999999
 10
1956.541352370038
 20
779.0208830618226
 30
0.0
 10
1956.570789481921
 20
778.855838389799
 30
0.0
 10
1956.61837476489
 20
778.5890426031667
 30
0.0
 10
1956.541404859836
 20
778.0410099267418
 30
0.0
 10
1956.262964350794
 20
777.3933421615823
 30
0.0
 10
1955.652716644195
 20
776.6568389992789
 30
0.0
 10
1954.776535824982
 20
776.0183469091788
 30
0.0
 10
1953.87569393789
 20
775.6711997520804
 30
0.0
 10
1953.294860242017
 20
775.6312000612934
 30
0.0
 10
1953.095093765512
 20
775.6174429439866
 30
0.0
  0
LWPOLYLINE
  5
28B
330
1F
100
AcDbEntity
  8
0
  6
PHANTOM
 62
     8
370
     0
100
AcDbPolyline
 90
        9
 70
   128
 43
0.0
 10
1958.6268667367
 20
779.5418276572
 10
1958.4140856054
 20
779.4886752152
 10
1958.1826519456
 20
779.4308587097
 10
1957.9348642614
 20
779.3689741873
 10
1957.6731961455
 20
779.3036027932
 10
1957.400251576
 20
779.2354299807
 10
1957.1187500146
 20
779.165111401
 10
1956.8314966049
 20
779.0933474087
 10
1956.54135237
 20
779.0208830618
  0
SPLINE
  5
28C
330
1F
100
AcDbEntity
  8
0
  6
PHANTOM
 62
     8
370
     0
100
AcDbSpline
210
0.0
220
0.0
230
1.0
 70
     8
 71
     3
 72
     9
 73
     5
 74
     0
 42
0.000000001
 43
0.00000001
 40
0.0
 40
0.0
 40
0.0
 40
0.0
 40
0.4750182933751249
 40
1.0
 40
1.0
 40
1.0
 40
1.0
 10
1956.541352370038
 20
779.0208830618226
 30
0.0
 10
1955.961337360031
 20
781.3666471588975
 30
0.0
 10
1954.740300153472
 20
786.3049077054711
 30
0.0
 10
1953.576283872053
 20
791.256924717159
 30
0.0
 10
1952.965196618095
 20
793.8566430591904
 30
0.0
  0
ARC
  5
28D
330
1F
100
AcDbEntity
  8
0
  6
PHANTOM
 62
     8
370
     0
100
AcDbCircle
 10
1952.8531823049
 20
795.6159807159
 30
0.0
 40
17.00000000000004
100
AcDbArc
 50
263.9817705219
 51
282.5300226426
  0
LWPOLYLINE
  5
28E
330
1F
100
AcDbEntity
  8
0
  6
PHANTOM
 62
     8
370
     0
100
AcDbPolyline
 90
        9
 70
   128
 43
0.0
 10
1951.0708194461
 20
778.7096723103
 10
1951.0094564643
 20
778.1276329541
 10
1950.9504515913
 20
777.5679453396
 10
1950.8960735288
 20
777.0521565461
 10
1950.8484084394
 20
776.6000404143
 10
1950.8092928913
 20
776.2290164017
 10
1950.7802281764
 20
775.9533151173
 10
1950.7623281565
 20
775.7835312867
 10
1950.7562857356
 20
775.7262065195
  0
ARC
  5
28F
330
1F
100
AcDbEntity
  8
0
  6
PHANTOM
 62
     8
370
     0
100
AcDbCircle
 10
1961.2407726608
 20
875.1750677394
 30
0.0
 40
97.00000000000017
100
AcDbArc
 50
259.7190359747
 51
263.9817705219
  0
ARC
  5
290
330
1F
100
AcDbEntity
  8
0
  6
PHANTOM
 62
     8
370
     0
100
AcDbCircle
 10
1950.3825370629
 20
772.9395112396
 30
0.0
 40
2.811646964598908
100
AcDbArc
 50
6.6207481397
 51
82.3611343545
  0
LINE
  5
291
330
1F
100
AcDbEntity
  8
0
  6
PHANTOM
 62
     8
370
     0
100
AcDbLine
 10
2303.9127256956
 20
815.5595137858
 30
0.0
 11
2303.9127256956
 21
978.6595166432
 31
0.0
  0
LINE
  5
292
330
1F
100
AcDbEntity
  8
0
  6
PHANTOM
 62
     8
370
     0
100
AcDbLine
 10
2303.9127256956
 20
978.6595166432
 30
0.0
 11
2304.9127426233
 21
978.6595166432
 31
0.0
  0
LINE
  5
293
330
1F
100
AcDbEntity
  8
0
  6
PHANTOM
 62
     8
370
     0
100
AcDbLine
 10
2303.9127256956
 20
815.5595137858
 30
0.0
 11
2304.9127426233
 21
815.5595137858
 31
0.0
  0
LINE
  5
294
330
1F
100
AcDbEntity
  8
0
  6
PHANTOM
 62
     8
370
     0
100
AcDbLine
 10
2303.9127256956
 20
815.5595137858
 30
0.0
 11
2303.9127256956
 21
814.5595117592
 31
0.0
  0
LINE
  5
295
330
1F
100
AcDbEntity
  8
0
  6
PHANTOM
 62
     8
370
     0
100
AcDbLine
 10
2245.9127273646
 20
815.5595137858
 30
0.0
 11
2303.9127256956
 21
815.5595137858
 31
0.0
  0
LINE
  5
296
330
1F
100
AcDbEntity
  8
0
  6
PHANTOM
 62
     8
370
     0
100
AcDbLine
 10
2245.9127273646
 20
978.6595166432
 30
0.0
 11
2245.9127273646
 21
815.5595137858
 31
0.0
  0
LINE
  5
297
330
1F
100
AcDbEntity
  8
0
  6
PHANTOM
 62
     8
370
     0
100
AcDbLine
 10
2303.9127256956
 20
978.6595166432
 30
0.0
 11
2245.9127273646
 21
978.6595166432
 31
0.0
  0
LINE
  5
298
330
1F
100
AcDbEntity
  8
0
  6
PHANTOM
 62
     8
370
     0
100
AcDbLine
 10
2245.9127273646
 20
814.5595117592
 30
0.0
 11
2245.9127273646
 21
815.5595137858
 31
0.0
  0
LINE
  5
299
330
1F
100
AcDbEntity
  8
0
  6
PHANTOM
 62
     8
370
     0
100
AcDbLine
 10
2303.9127256956
 20
979.459516623
 30
0.0
 11
2303.9127256956
 21
978.6595166432
 31
0.0
  0
LINE
  5
29A
330
1F
100
AcDbEntity
  8
0
  6
PHANTOM
 62
     8
370
     0
100
AcDbLine
 10
2245.9127273646
 20
815.5595137858
 30
0.0
 11
2244.9127402392
 21
815.5595137858
 31
0.0
  0
LINE
  5
29B
330
1F
100
AcDbEntity
  8
0
  6
PHANTOM
 62
     8
370
     0
100
AcDbLine
 10
1803.1127419558
 20
978.5595166384
 30
0.0
 11
1803.1127419558
 21
979.459516623
 31
0.0
  0
LINE
  5
29C
330
1F
100
AcDbEntity
  8
0
  6
PHANTOM
 62
     8
370
     0
100
AcDbLine
 10
1803.1127419558
 20
978.5595166384
 30
0.0
 11
1804.1127439823
 21
978.5595166384
 31
0.0
  0
LINE
  5
29D
330
1F
100
AcDbEntity
  8
0
  6
PHANTOM
 62
     8
370
     0
100
AcDbLine
 10
1803.1127419558
 20
815.5595137858
 30
0.0
 11
1803.1127419558
 21
978.5595166384
 31
0.0
  0
LINE
  5
29E
330
1F
100
AcDbEntity
  8
0
  6
PHANTOM
 62
     8
370
     0
100
AcDbLine
 10
1803.1127419558
 20
815.5595137858
 30
0.0
 11
1804.1127439823
 21
815.5595137858
 31
0.0
  0
LINE
  5
29F
330
1F
100
AcDbEntity
  8
0
  6
PHANTOM
 62
     8
370
     0
100
AcDbLine
 10
1803.1127419558
 20
978.5595166384
 30
0.0
 11
1772.1127387371
 21
978.5595166384
 31
0.0
  0
LINE
  5
2A0
330
1F
100
AcDbEntity
  8
0
  6
PHANTOM
 62
     8
370
     0
100
AcDbLine
 10
1772.1127387371
 20
815.5595137858
 30
0.0
 11
1803.1127419558
 21
815.5595137858
 31
0.0
  0
LINE
  5
2A1
330
1F
100
AcDbEntity
  8
0
  6
PHANTOM
 62
     8
370
     0
100
AcDbLine
 10
1772.1127387371
 20
978.5595166384
 30
0.0
 11
1772.1127387371
 21
815.5595137858
 31
0.0
  0
LINE
  5
2A2
330
1F
100
AcDbEntity
  8
0
  6
PHANTOM
 62
     8
370
     0
100
AcDbLine
 10
1772.1127387371
 20
814.5595117592
 30
0.0
 11
1772.1127387371
 21
815.5595137858
 31
0.0
  0
LINE
  5
2A3
330
1F
100
AcDbEntity
  8
0
  6
PHANTOM
 62
     8
370
     0
100
AcDbLine
 10
1803.1127419558
 20
815.5595137858
 30
0.0
 11
1803.1127419558
 21
814.5595117592
 31
0.0
  0
LINE
  5
2A4
330
1F
100
AcDbEntity
  8
0
  6
PHANTOM
 62
     8
370
     0
100
AcDbLine
 10
1772.1127387371
 20
978.5595166384
 30
0.0
 11
1772.1127387371
 21
979.459516623
 31
0.0
  0
LINE
  5
2A5
330
1F
100
AcDbEntity
  8
0
  6
PHANTOM
 62
     8
370
     0
100
AcDbLine
 10
1772.1127387371
 20
978.5595166384
 30
0.0
 11
1740.1127483931
 21
978.5595166384
 31
0.0
  0
LINE
  5
2A6
330
1F
100
AcDbEntity
  8
0
  6
PHANTOM
 62
     8
370
     0
100
AcDbLine
 10
1740.1127483931
 20
815.5595137858
 30
0.0
 11
1772.1127387371
 21
815.5595137858
 31
0.0
  0
LINE
  5
2A7
330
1F
100
AcDbEntity
  8
0
  6
PHANTOM
 62
     8
370
     0
100
AcDbLine
 10
1740.8727374163
 20
810.2995230936
 30
0.0
 11
1803.352740058
 21
810.2995230936
 31
0.0
  0
LINE
  5
2A8
330
1F
100
AcDbEntity
  8
0
  6
PHANTOM
 62
     8
370
     0
100
AcDbLine
 10
1772.1127387371
 20
806.5950944208
 30
0.0
 11
1801.6960736599
 21
806.5950944208
 31
0.0
  0
LINE
  5
2A9
330
1F
100
AcDbEntity
  8
0
  6
PHANTOM
 62
     8
370
     0
100
AcDbLine
 10
1742.5294187155
 20
806.5950944208
 30
0.0
 11
1772.1127387371
 21
806.5950944208
 31
0.0
  0
LINE
  5
2AA
330
1F
100
AcDbEntity
  8
0
  6
PHANTOM
 62
     8
370
     0
100
AcDbLine
 10
1801.7050292578
 20
813.6645629191
 30
0.0
 11
1742.5204482165
 21
813.6645629191
 31
0.0
  0
LINE
  5
2AB
330
1F
100
AcDbEntity
  8
0
  6
PHANTOM
 62
     8
370
     0
100
AcDbLine
 10
1792.7027460423
 20
786.4853962445
 30
0.0
 11
1751.5227463331
 21
786.4853962445
 31
0.0
  0
LINE
  5
2AC
330
1F
100
AcDbEntity
  8
0
  6
PHANTOM
 62
     8
370
     0
100
AcDbLine
 10
1746.3241931286
 20
768.8315584444
 30
0.0
 11
1797.9012843456
 21
768.8315584444
 31
0.0
  0
LINE
  5
2AD
330
1F
100
AcDbEntity
  8
0
  6
PHANTOM
 62
     8
370
     0
100
AcDbLine
 10
1772.1127387371
 20
769.8974385046
 30
0.0
 11
1797.3394807663
 21
769.8974385046
 31
0.0
  0
LINE
  5
2AE
330
1F
100
AcDbEntity
  8
0
  6
PHANTOM
 62
     8
370
     0
100
AcDbLine
 10
1746.8860116091
 20
769.8974385046
 30
0.0
 11
1772.1127387371
 21
769.8974385046
 31
0.0
  0
LINE
  5
2AF
330
1F
100
AcDbEntity
  8
0
  6
PHANTOM
 62
     8
370
     0
100
AcDbLine
 10
1746.612739214
 20
754.6825333618
 30
0.0
 11
1797.6127382603
 21
754.6825333618
 31
0.0
  0
LINE
  5
2B0
330
1F
100
AcDbEntity
  8
0
  6
PHANTOM
 62
     8
370
     0
100
AcDbLine
 10
1793.4115644779
 20
759.1725959563
 30
0.0
 11
1750.8139129963
 21
759.1725959563
 31
0.0
  0
LINE
  5
2B1
330
1F
100
AcDbEntity
  8
0
  6
PHANTOM
 62
     8
370
     0
100
AcDbLine
 10
1751.5227463331
 20
785.4495122217
 30
0.0
 11
1792.7027460423
 21
785.4495122217
 31
0.0
  0
LINE
  5
2B2
330
1F
100
AcDbEntity
  8
0
  6
PHANTOM
 62
     8
370
     0
100
AcDbLine
 10
1791.6377451506
 20
761.5395113015
 30
0.0
 11
1752.5877323237
 21
761.5395113015
 31
0.0
  0
LINE
  5
2B3
330
1F
100
AcDbEntity
  8
0
  6
PHANTOM
 62
     8
370
     0
100
AcDbLine
 10
1772.1127387371
 20
761.0684110903
 30
0.0
 11
1791.6377451506
 21
761.0684110903
 31
0.0
  0
LINE
  5
2B4
330
1F
100
AcDbEntity
  8
0
  6
PHANTOM
 62
     8
370
     0
100
AcDbLine
 10
1752.5877323237
 20
761.0684110903
 30
0.0
 11
1772.1127387371
 21
761.0684110903
 31
0.0
  0
LINE
  5
2B5
330
1F
100
AcDbEntity
  8
0
  6
PHANTOM
 62
     8
370
     0
100
AcDbLine
 10
1772.1127387371
 20
207.6650782608
 30
0.0
 11
1788.378265151
 21
207.6650782608
 31
0.0
  0
LINE
  5
2B6
330
1F
100
AcDbEntity
  8
0
  6
PHANTOM
 62
     8
370
     0
100
AcDbLine
 10
1755.8472123232
 20
207.6650782608
 30
0.0
 11
1772.1127387371
 21
207.6650782608
 31
0.0
  0
LINE
  5
2B7
330
1F
100
AcDbEntity
  8
0
  6
PHANTOM
 62
     8
370
     0
100
AcDbLine
 10
1772.1127387371
 20
190.5173584008
 30
0.0
 11
1754.1127469626
 21
190.5173584008
 31
0.0
  0
LINE
  5
2B8
330
1F
100
AcDbEntity
  8
0
  6
PHANTOM
 62
     8
370
     0
100
AcDbLine
 10
1790.1127454128
 20
190.5173584008
 30
0.0
 11
1772.1127387371
 21
190.5173584008
 31
0.0
  0
LINE
  5
2B9
330
1F
100
AcDbEntity
  8
0
  6
PHANTOM
 62
     8
370
     0
100
AcDbLine
 10
1772.1127387371
 20
193.8940211319
 30
0.0
 11
1787.5337865439
 21
193.8940211319
 31
0.0
  0
LINE
  5
2BA
330
1F
100
AcDbEntity
  8
0
  6
PHANTOM
 62
     8
370
     0
100
AcDbLine
 10
1756.6916909304
 20
193.8940211319
 30
0.0
 11
1772.1127387371
 21
193.8940211319
 31
0.0
  0
LINE
  5
2BB
330
1F
100
AcDbEntity
  8
0
  6
PHANTOM
 62
     8
370
     0
100
AcDbLine
 10
1754.1127469626
 20
190.1825591111
 30
0.0
 11
1790.1127454128
 21
190.1825591111
 31
0.0
  0
LINE
  5
2BC
330
1F
100
AcDbEntity
  8
0
  6
PHANTOM
 62
     8
370
     0
100
AcDbLine
 10
1772.1127387371
 20
205.8029695534
 30
0.0
 11
1787.0619412747
 21
205.8029695534
 31
0.0
  0
LINE
  5
2BD
330
1F
100
AcDbEntity
  8
0
  6
PHANTOM
 62
     8
370
     0
100
AcDbLine
 10
1757.1635361996
 20
205.8029695534
 30
0.0
 11
1772.1127387371
 21
205.8029695534
 31
0.0
  0
LINE
  5
2BE
330
1F
100
AcDbEntity
  8
0
  6
PHANTOM
 62
     8
370
     0
100
AcDbLine
 10
1761.1127462473
 20
199.6825262093
 30
0.0
 11
1783.1127461281
 21
199.6825262093
 31
0.0
  0
LINE
  5
2BF
330
1F
100
AcDbEntity
  8
0
  6
PHANTOM
 62
     8
370
     0
100
AcDbLine
 10
1783.1127461281
 20
200.1643701577
 30
0.0
 11
1761.1127462473
 21
200.1643701577
 31
0.0
  0
LINE
  5
2C0
330
1F
100
AcDbEntity
  8
0
  6
PHANTOM
 62
     8
370
     0
100
AcDbLine
 10
1786.0879119721
 20
186.2087174439
 30
0.0
 11
1758.1375655022
 21
186.2087174439
 31
0.0
  0
LINE
  5
2C1
330
1F
100
AcDbEntity
  8
0
  6
PHANTOM
 62
     8
370
     0
100
AcDbLine
 10
1772.1127387371
 20
123.6302181267
 30
0.0
 11
1782.8083005037
 21
123.6302181267
 31
0.0
  0
LINE
  5
2C2
330
1F
100
AcDbEntity
  8
0
  6
PHANTOM
 62
     8
370
     0
100
AcDbLine
 10
1761.4171769705
 20
123.6302181267
 30
0.0
 11
1772.1127387371
 21
123.6302181267
 31
0.0
  0
LINE
  5
2C3
330
1F
100
AcDbEntity
  8
0
  6
PHANTOM
 62
     8
370
     0
100
AcDbLine
 10
2305.1127460089
 20
992.4595168912
 30
0.0
 11
1755.112734088
 21
992.4595168912
 31
0.0
  0
LINE
  5
2C4
330
1F
100
AcDbEntity
  8
0
  6
PHANTOM
 62
     8
370
     0
100
AcDbLine
 10
1755.112734088
 20
992.4595168912
 30
0.0
 11
1755.112734088
 21
1004.4595169955
 31
0.0
  0
LINE
  5
2C5
330
1F
100
AcDbEntity
  8
0
  6
PHANTOM
 62
     8
370
     0
100
AcDbLine
 10
1755.112734088
 20
991.4595167273
 30
0.0
 11
2305.1127460089
 21
991.4595167273
 31
0.0
  0
LINE
  5
2C6
330
1F
100
AcDbEntity
  8
0
  6
PHANTOM
 62
     8
370
     0
100
AcDbLine
 10
1755.112734088
 20
992.4595168912
 30
0.0
 11
1755.112734088
 21
991.4595167273
 31
0.0
  0
LINE
  5
2C7
330
1F
100
AcDbEntity
  8
0
  6
PHANTOM
 62
     8
370
     0
100
AcDbLine
 10
1755.112734088
 20
979.459516623
 30
0.0
 11
1755.112734088
 21
991.4595167273
 31
0.0
  0
LINE
  5
2C8
330
1F
100
AcDbEntity
  8
0
  6
PHANTOM
 62
     8
370
     0
100
AcDbLine
 10
1755.112734088
 20
992.4595168912
 30
0.0
 11
1715.1127424326
 21
992.4595168912
 31
0.0
  0
LINE
  5
2C9
330
1F
100
AcDbEntity
  8
0
  6
PHANTOM
 62
     8
370
     0
100
AcDbLine
 10
1715.1127424326
 20
991.4595167273
 30
0.0
 11
1755.112734088
 21
991.4595167273
 31
0.0
  0
LINE
  5
2CA
330
1F
100
AcDbEntity
  8
0
  6
PHANTOM
 62
     8
370
     0
100
AcDbLine
 10
1760.1127442207
 20
1004.4595169955
 30
0.0
 11
1760.1127442207
 21
1016.6470184111
 31
0.0
  0
LINE
  5
2CB
330
1F
100
AcDbEntity
  8
0
  6
PHANTOM
 62
     8
370
     0
100
AcDbLine
 10
2305.1127460089
 20
1016.6470184111
 30
0.0
 11
1760.1127442207
 21
1016.6470184111
 31
0.0
  0
LINE
  5
2CC
330
1F
100
AcDbEntity
  8
0
  6
PHANTOM
 62
     8
370
     0
100
AcDbLine
 10
1760.1127442207
 20
1016.6470184111
 30
0.0
 11
1740.0873270121
 21
1016.6470184111
 31
0.0
  0
LINE
  5
2CD
330
1F
100
AcDbEntity
  8
0
  6
PHANTOM
 62
     8
370
     0
100
AcDbLine
 10
1760.1127442207
 20
1019.4595157289
 30
0.0
 11
1760.1127442207
 21
1016.6470184111
 31
0.0
  0
LINE
  5
2CE
330
1F
100
AcDbEntity
  8
0
  6
PHANTOM
 62
     8
370
     0
100
AcDbLine
 10
1804.3127324667
 20
815.3595104002
 30
0.0
 11
2244.9127402392
 21
815.3595104002
 31
0.0
  0
SPLINE
  5
2CF
330
1F
100
AcDbEntity
  8
0
  6
PHANTOM
 62
     8
370
     0
100
AcDbSpline
210
0.0
220
0.0
230
1.0
 70
     8
 71
     3
 72
    16
 73
    12
 74
     0
 42
0.000000001
 43
0.00000001
 40
0.0
 40
0.0
 40
0.0
 40
0.0
 40
0.2499999999999745
 40
0.2499999999999745
 40
0.374999999999969
 40
0.374999999999969
 40
0.4999999999999635
 40
0.4999999999999635
 40
0.7499999999999817
 40
0.7499999999999817
 40
1.0
 40
1.0
 40
1.0
 40
1.0
 10
2225.395638892238
 20
835.3491648112918
 30
0.0
 10
2225.395638892238
 20
835.1798846602998
 30
0.0
 10
2225.368220595426
 20
835.0126318767288
 30
0.0
 10
2225.278904073379
 20
834.7764673193066
 30
0.0
 10
2225.241730444723
 20
834.7017794663533
 30
0.0
 10
2225.151905097432
 20
834.5608390547535
 30
0.0
 10
2225.098417068431
 20
834.4939219993298
 30
0.0
 10
2224.920740687447
 20
834.3159141383796
 30
0.0
 10
2224.775191375364
 20
834.2236003966501
 30
0.0
 10
2224.461810719994
 20
834.1046459208977
 30
0.0
 10
2224.292535363908
 20
834.0766173023044
 30
0.0
 10
2224.123091383251
 20
834.0766173023044
 30
0.0
  0
LINE
  5
2D0
330
1F
100
AcDbEntity
  8
0
  6
PHANTOM
 62
     8
370
     0
100
AcDbLine
 10
2225.3956463423
 20
958.4698676252
 30
0.0
 11
2225.3956463423
 21
835.349164822
 31
0.0
  0
SPLINE
  5
2D1
330
1F
100
AcDbEntity
  8
0
  6
PHANTOM
 62
     8
370
     0
100
AcDbSpline
210
0.0
220
0.0
230
1.0
 70
     8
 71
     3
 72
    16
 73
    12
 74
     0
 42
0.000000001
 43
0.00000001
 40
0.0
 40
0.0
 40
0.0
 40
0.0
 40
0.2500000000000004
 40
0.2500000000000004
 40
0.3750000000000016
 40
0.3750000000000016
 40
0.5000000000000027
 40
0.5000000000000027
 40
0.7500000000000013
 40
0.7500000000000013
 40
1.0
 40
1.0
 40
1.0
 40
1.0
 10
2224.123091383251
 20
959.7424159436094
 30
0.0
 10
2224.292371534243
 20
959.7424159436094
 30
0.0
 10
2224.459624317814
 20
959.7149976467975
 30
0.0
 10
2224.695788875236
 20
959.6256811247504
 30
0.0
 10
2224.770476728189
 20
959.5885074960939
 30
0.0
 10
2224.911417139789
 20
959.4986821488034
 30
0.0
 10
2224.978334195212
 20
959.4451941198021
 30
0.0
 10
2225.156342056163
 20
959.2675177388184
 30
0.0
 10
2225.248655797892
 20
959.121968426735
 30
0.0
 10
2225.367610273645
 20
958.8085877713651
 30
0.0
 10
2225.395638892238
 20
958.6393124152795
 30
0.0
 10
2225.395638892238
 20
958.4698684346221
 30
0.0
  0
LINE
  5
2D2
330
1F
100
AcDbEntity
  8
0
  6
PHANTOM
 62
     8
370
     0
100
AcDbLine
 10
1824.102383503
 20
959.7424156153
 30
0.0
 11
2224.1230871763
 21
959.7424156153
 31
0.0
  0
SPLINE
  5
2D3
330
1F
100
AcDbEntity
  8
0
  6
PHANTOM
 62
     8
370
     0
100
AcDbSpline
210
0.0
220
0.0
230
1.0
 70
     8
 71
     3
 72
    16
 73
    12
 74
     0
 42
0.000000001
 43
0.00000001
 40
0.0
 40
0.0
 40
0.0
 40
0.0
 40
0.2499999999999762
 40
0.2499999999999762
 40
0.3749999999999717
 40
0.3749999999999717
 40
0.4999999999999671
 40
0.4999999999999671
 40
0.7499999999999836
 40
0.7499999999999836
 40
1.0
 40
1.0
 40
1.0
 40
1.0
 10
1822.829840250933
 20
958.4698684346221
 30
0.0
 10
1822.829840250933
 20
958.6391485856141
 30
0.0
 10
1822.857258547745
 20
958.8064013691852
 30
0.0
 10
1822.946575069793
 20
959.0425659266076
 30
0.0
 10
1822.983748698449
 20
959.1172537795609
 30
0.0
 10
1823.073574045739
 20
959.2581941911607
 30
0.0
 10
1823.127062074741
 20
959.3251112465845
 30
0.0
 10
1823.304738455725
 20
959.5031191075345
 30
0.0
 10
1823.450287767808
 20
959.5954328492641
 30
0.0
 10
1823.763668423178
 20
959.7143873250163
 30
0.0
 10
1823.932943779264
 20
959.7424159436097
 30
0.0
 10
1824.102387759921
 20
959.7424159436094
 30
0.0
  0
LINE
  5
2D4
330
1F
100
AcDbEntity
  8
0
  6
PHANTOM
 62
     8
370
     0
100
AcDbLine
 10
1822.8298392382
 20
835.349164822
 30
0.0
 11
1822.8298392382
 21
958.4698676252
 31
0.0
  0
SPLINE
  5
2D5
330
1F
100
AcDbEntity
  8
0
  6
PHANTOM
 62
     8
370
     0
100
AcDbSpline
210
0.0
220
0.0
230
1.0
 70
     8
 71
     3
 72
    16
 73
    12
 74
     0
 42
0.000000001
 43
0.00000001
 40
0.0
 40
0.0
 40
0.0
 40
0.0
 40
0.2499999999999745
 40
0.2499999999999745
 40
0.374999999999969
 40
0.374999999999969
 40
0.4999999999999635
 40
0.4999999999999635
 40
0.7499999999999817
 40
0.7499999999999817
 40
1.0
 40
1.0
 40
1.0
 40
1.0
 10
1824.10238775992
 20
834.0766173023044
 30
0.0
 10
1823.933107608928
 20
834.0766173023043
 30
0.0
 10
1823.765854825358
 20
834.1040355991162
 30
0.0
 10
1823.529690267935
 20
834.1933521211636
 30
0.0
 10
1823.455002414982
 20
834.2305257498198
 30
0.0
 10
1823.314062003382
 20
834.3203510971103
 30
0.0
 10
1823.247144947958
 20
834.3738391261118
 30
0.0
 10
1823.069137087008
 20
834.5515155070955
 30
0.0
 10
1822.976823345279
 20
834.697064819179
 30
0.0
 10
1822.857868869527
 20
835.0104454745489
 30
0.0
 10
1822.829840250933
 20
835.1797208306342
 30
0.0
 10
1822.829840250933
 20
835.3491648112918
 30
0.0
  0
LINE
  5
2D6
330
1F
100
AcDbEntity
  8
0
  6
PHANTOM
 62
     8
370
     0
100
AcDbLine
 10
2224.1230871763
 20
834.0766205572
 30
0.0
 11
1824.102383503
 21
834.0766205572
 31
0.0
  0
LINE
  5
2D7
330
1F
100
AcDbEntity
  8
0
  6
PHANTOM
 62
     8
370
     0
100
AcDbLine
 10
2224.1230871763
 20
834.0766205572
 30
0.0
 11
2224.1230871763
 21
834.5007970118
 31
0.0
  0
SPLINE
  5
2D8
330
1F
100
AcDbEntity
  8
0
  6
PHANTOM
 62
     8
370
     0
100
AcDbSpline
210
0.0
220
0.0
230
1.0
 70
     8
 71
     3
 72
    14
 73
    10
 74
     0
 42
0.000000001
 43
0.00000001
 40
0.0
 40
0.0
 40
0.0
 40
0.0
 40
0.1656925168403041
 40
0.3584486111969331
 40
0.5178927008205312
 40
0.553892554673438
 40
0.7491207335204317
 40
0.7715989730013956
 40
1.0
 40
1.0
 40
1.0
 40
1.0
 10
2224.123087176337
 20
834.500797011789
 30
0.0
 10
2224.199728735399
 20
834.4987020537386
 30
0.0
 10
2224.365530190586
 20
834.494169955259
 30
0.0
 10
2224.600248199145
 20
834.5685077534122
 30
0.0
 10
2224.746636384862
 20
834.6798379136095
 30
0.0
 10
2224.864973326496
 20
834.8175204884112
 30
0.0
 10
2224.919297539738
 20
834.9264464377221
 30
0.0
 10
2224.97433863845
 20
835.1255643010788
 30
0.0
 10
2224.972829190901
 20
835.2426079923094
 30
0.0
 10
2224.971454986587
 20
835.3491648220383
 30
0.0
  0
LINE
  5
2D9
330
1F
100
AcDbEntity
  8
0
  6
PHANTOM
 62
     8
370
     0
100
AcDbLine
 10
2225.3956463423
 20
835.349164822
 30
0.0
 11
2224.9714549866
 21
835.349164822
 31
0.0
  0
LINE
  5
2DA
330
1F
100
AcDbEntity
  8
0
  6
PHANTOM
 62
     8
370
     0
100
AcDbLine
 10
2224.1230871763
 20
959.3182335728
 30
0.0
 11
1824.102383503
 21
959.3182335728
 31
0.0
  0
LINE
  5
2DB
330
1F
100
AcDbEntity
  8
0
  6
PHANTOM
 62
     8
370
     0
100
AcDbLine
 10
1824.102383503
 20
959.3182335728
 30
0.0
 11
1824.102383503
 21
959.7424156153
 31
0.0
  0
LINE
  5
2DC
330
1F
100
AcDbEntity
  8
0
  6
PHANTOM
 62
     8
370
     0
100
AcDbLine
 10
2224.1230871763
 20
959.3182335728
 30
0.0
 11
2224.1230871763
 21
959.7424156153
 31
0.0
  0
LINE
  5
2DD
330
1F
100
AcDbEntity
  8
0
  6
PHANTOM
 62
     8
370
     0
100
AcDbLine
 10
1824.102383503
 20
834.0766205572
 30
0.0
 11
1824.102383503
 21
834.5007970118
 31
0.0
  0
LINE
  5
2DE
330
1F
100
AcDbEntity
  8
0
  6
PHANTOM
 62
     8
370
     0
100
AcDbLine
 10
1824.102383503
 20
834.5007970118
 30
0.0
 11
2224.1230871763
 21
834.5007970118
 31
0.0
  0
LINE
  5
2DF
330
1F
100
AcDbEntity
  8
0
  6
PHANTOM
 62
     8
370
     0
100
AcDbLine
 10
2225.3956463423
 20
958.4698676252
 30
0.0
 11
2224.9714549866
 21
958.4698676252
 31
0.0
  0
SPLINE
  5
2E0
330
1F
100
AcDbEntity
  8
0
  6
PHANTOM
 62
     8
370
     0
100
AcDbSpline
210
0.0
220
0.0
230
1.0
 70
     8
 71
     3
 72
    14
 73
    10
 74
     0
 42
0.000000001
 43
0.00000001
 40
0.0
 40
0.0
 40
0.0
 40
0.0
 40
0.1656920055740851
 40
0.3584465115032371
 40
0.517894562934316
 40
0.5538893694191319
 40
0.749119117611967
 40
0.7715974676037376
 40
1.0
 40
1.0
 40
1.0
 40
1.0
 10
2224.971454986587
 20
958.4698676251733
 30
0.0
 10
2224.973550434801
 20
958.5465090289589
 30
0.0
 10
2224.978083581106
 20
958.7123096886135
 30
0.0
 10
2224.903737099398
 20
958.9470193484337
 30
0.0
 10
2224.79242546133
 20
959.09342403963
 30
0.0
 10
2224.654718636033
 20
959.2117317828859
 30
0.0
 10
2224.545806242539
 20
959.2660691814489
 30
0.0
 10
2224.346687161631
 20
959.3211092501945
 30
0.0
 10
2224.229643759164
 20
959.319603976977
 30
0.0
 10
2224.123087176337
 20
959.3182335727774
 30
0.0
  0
LINE
  5
2E1
330
1F
100
AcDbEntity
  8
0
  6
PHANTOM
 62
     8
370
     0
100
AcDbLine
 10
2224.9714549866
 20
835.349164822
 30
0.0
 11
2224.9714549866
 21
958.4698676252
 31
0.0
  0
SPLINE
  5
2E2
330
1F
100
AcDbEntity
  8
0
  6
PHANTOM
 62
     8
370
     0
100
AcDbSpline
210
0.0
220
0.0
230
1.0
 70
     8
 71
     3
 72
    14
 73
    10
 74
     0
 42
0.000000001
 43
0.00000001
 40
0.0
 40
0.0
 40
0.0
 40
0.0
 40
0.1656831744191408
 40
0.3584403707073754
 40
0.517894997109177
 40
0.5538861404165433
 40
0.7491194085679139
 40
0.7716003909782577
 40
1.0
 40
1.0
 40
1.0
 40
1.0
 10
1824.102383502975
 20
959.3182335727774
 30
0.0
 10
1824.025746440561
 20
959.3203293092456
 30
0.0
 10
1823.859949176248
 20
959.324863243118
 30
0.0
 10
1823.625240652203
 20
959.2505174593689
 30
0.0
 10
1823.47882962757
 20
959.1392098236252
 30
0.0
 10
1823.360521729184
 20
959.0014998179954
 30
0.0
 10
1823.306184851104
 20
958.8925857921354
 30
0.0
 10
1823.251151415001
 20
958.6934638321513
 30
0.0
 10
1823.252650729366
 20
958.576421758234
 30
0.0
 10
1823.254015692725
 20
958.4698676251733
 30
0.0
  0
LINE
  5
2E3
330
1F
100
AcDbEntity
  8
0
  6
PHANTOM
 62
     8
370
     0
100
AcDbLine
 10
1823.2540156927
 20
958.4698676252
 30
0.0
 11
1822.8298392382
 21
958.4698676252
 31
0.0
  0
LINE
  5
2E4
330
1F
100
AcDbEntity
  8
0
  6
PHANTOM
 62
     8
370
     0
100
AcDbLine
 10
1823.2540156927
 20
835.349164822
 30
0.0
 11
1822.8298392382
 21
835.349164822
 31
0.0
  0
SPLINE
  5
2E5
330
1F
100
AcDbEntity
  8
0
  6
PHANTOM
 62
     8
370
     0
100
AcDbSpline
210
0.0
220
0.0
230
1.0
 70
     8
 71
     3
 72
    14
 73
    10
 74
     0
 42
0.000000001
 43
0.00000001
 40
0.0
 40
0.0
 40
0.0
 40
0.0
 40
0.165693597701487
 40
0.3584509494630015
 40
0.517896079187448
 40
0.5538892022873405
 40
0.7491186546653564
 40
0.7716073086037427
 40
1.0
 40
1.0
 40
1.0
 40
1.0
 10
1823.254015692725
 20
835.3491648220383
 30
0.0
 10
1823.251920333056
 20
835.2725227878864
 30
0.0
 10
1823.24738736574
 20
835.1067203049198
 30
0.0
 10
1823.321732055553
 20
834.8720104487729
 30
0.0
 10
1823.433043067908
 20
834.7256046020573
 30
0.0
 10
1823.570756019232
 20
834.6073086559715
 30
0.0
 10
1823.679665803206
 20
834.5529562137303
 30
0.0
 10
1823.878793300823
 20
834.4979442248112
 30
0.0
 10
1823.99583408839
 20
834.4994375480044
 30
0.0
 10
1824.102383502975
 20
834.500797011789
 30
0.0
  0
LINE
  5
2E6
330
1F
100
AcDbEntity
  8
0
  6
PHANTOM
 62
     8
370
     0
100
AcDbLine
 10
1823.2540156927
 20
958.4698676252
 30
0.0
 11
1823.2540156927
 21
835.349164822
 31
0.0
  0
LWPOLYLINE
  5
2E7
330
1F
100
AcDbEntity
  8
0
  6
PHANTOM
 62
     8
370
     0
100
AcDbPolyline
 90
        6
 70
   128
 43
0.0
 10
2218.1845423069
 20
952.5313134425
 10
2219.5928957548
 20
954.1408754074
 10
2220.9436711159
 20
955.6846077674
 10
2222.1815999832
 20
957.0993798905
 10
2223.2560482111
 20
958.3273287051
 10
2224.1230871763
 20
959.3182335728
  0
LWPOLYLINE
  5
2E8
330
1F
100
AcDbEntity
  8
0
  6
PHANTOM
 62
     8
370
     0
100
AcDbPolyline
 90
        6
 70
   128
 43
0.0
 10
2224.9714549866
 20
958.4698676252
 10
2223.9805575695
 20
957.6028267973
 10
2222.752597579
 20
956.5283711188
 10
2221.3378366318
 20
955.2904459768
 10
2219.7940912333
 20
953.939679929
 10
2218.1845423069
 20
952.5313134425
  0
LWPOLYLINE
  5
2E9
330
1F
100
AcDbEntity
  8
0
  6
PHANTOM
 62
     8
370
     0
100
AcDbPolyline
 90
        6
 70
   128
 43
0.0
 10
2218.1845423069
 20
841.2877245926
 10
2219.7940912333
 20
839.8793562435
 10
2221.3378366318
 20
838.5285808825
 10
2222.752597579
 20
837.2906669163
 10
2223.9805575695
 20
836.2162037873
 10
2224.9714549866
 20
835.349164822
  0
LWPOLYLINE
  5
2EA
330
1F
100
AcDbEntity
  8
0
  6
PHANTOM
 62
     8
370
     0
100
AcDbPolyline
 90
        6
 70
   128
 43
0.0
 10
2224.1230871763
 20
834.5007970118
 10
2223.2560482111
 20
835.49170933
 10
2222.1815999832
 20
836.7196544194
 10
2220.9436711159
 20
838.1344302677
 10
2219.5928957548
 20
839.6781607651
 10
2218.1845423069
 20
841.2877245926
  0
LWPOLYLINE
  5
2EB
330
1F
100
AcDbEntity
  8
0
  6
PHANTOM
 62
     8
370
     0
100
AcDbPolyline
 90
        6
 70
   128
 43
0.0
 10
1830.0409432736
 20
952.5313134425
 10
1828.431379446
 20
953.939679929
 10
1826.8876489487
 20
955.2904459768
 10
1825.4728731003
 20
956.5283711188
 10
1824.244928011
 20
957.6028267973
 10
1823.2540156927
 20
958.4698676252
  0
LWPOLYLINE
  5
2EC
330
1F
100
AcDbEntity
  8
0
  6
PHANTOM
 62
     8
370
     0
100
AcDbPolyline
 90
        6
 70
   128
 43
0.0
 10
1824.102383503
 20
959.3182335728
 10
1824.9694224682
 20
958.3273287051
 10
1826.0438855972
 20
957.0993798905
 10
1827.2818144646
 20
955.6846077674
 10
1828.6325749245
 20
954.1408754074
 10
1830.0409432736
 20
952.5313134425
  0
LWPOLYLINE
  5
2ED
330
1F
100
AcDbEntity
  8
0
  6
PHANTOM
 62
     8
370
     0
100
AcDbPolyline
 90
        6
 70
   128
 43
0.0
 10
1830.0409432736
 20
841.2877245926
 10
1828.6325749245
 20
839.6781607651
 10
1827.2818144646
 20
838.1344302677
 10
1826.0438855972
 20
836.7196544194
 10
1824.9694224682
 20
835.49170933
 10
1824.102383503
 20
834.5007970118
  0
LWPOLYLINE
  5
2EE
330
1F
100
AcDbEntity
  8
0
  6
PHANTOM
 62
     8
370
     0
100
AcDbPolyline
 90
        6
 70
   128
 43
0.0
 10
1823.2540156927
 20
835.349164822
 10
1824.244928011
 20
836.2162037873
 10
1825.4728731003
 20
837.2906669163
 10
1826.8876489487
 20
838.5285808825
 10
1828.431379446
 20
839.8793562435
 10
1830.0409432736
 20
841.2877245926
  0
LINE
  5
2EF
330
1F
100
AcDbEntity
  8
0
  6
PHANTOM
 62
     8
370
     0
100
AcDbLine
 10
2218.1845423069
 20
841.2877245926
 30
0.0
 11
2218.1845423069
 21
952.5313134425
 31
0.0
  0
LINE
  5
2F0
330
1F
100
AcDbEntity
  8
0
  6
PHANTOM
 62
     8
370
     0
100
AcDbLine
 10
2218.1845423069
 20
952.5313134425
 30
0.0
 11
1830.0409432736
 21
952.5313134425
 31
0.0
  0
LINE
  5
2F1
330
1F
100
AcDbEntity
  8
0
  6
PHANTOM
 62
     8
370
     0
100
AcDbLine
 10
1830.0409432736
 20
841.2877245926
 30
0.0
 11
2218.1845423069
 21
841.2877245926
 31
0.0
  0
LINE
  5
2F2
330
1F
100
AcDbEntity
  8
0
  6
PHANTOM
 62
     8
370
     0
100
AcDbLine
 10
1830.0409432736
 20
952.5313134425
 30
0.0
 11
1830.0409432736
 21
841.2877245926
 31
0.0
  0
LINE
  5
2F3
330
1F
100
AcDbEntity
  8
0
  6
PHANTOM
 62
     8
370
     0
100
AcDbLine
 10
2216.1127444592
 20
842.3595204138
 30
0.0
 11
2216.1127444592
 21
841.3595183873
 31
0.0
  0
LINE
  5
2F4
330
1F
100
AcDbEntity
  8
0
  6
PHANTOM
 62
     8
370
     0
100
AcDbLine
 10
2216.1127444592
 20
841.3595183873
 30
0.0
 11
1832.1127411213
 21
841.3595183873
 31
0.0
  0
LINE
  5
2F5
330
1F
100
AcDbEntity
  8
0
  6
PHANTOM
 62
     8
370
     0
100
AcDbLine
 10
1832.1127411213
 20
842.3595204138
 30
0.0
 11
1832.1127411213
 21
841.3595183873
 31
0.0
  0
ARC
  5
2F6
330
1F
100
AcDbEntity
  8
0
  6
PHANTOM
 62
     8
370
     0
100
AcDbCircle
 10
2216.1127395716
 20
843.359516623
 30
0.0
 40
2.0
100
AcDbArc
 50
270.0
 51
0.0
  0
LINE
  5
2F7
330
1F
100
AcDbEntity
  8
0
  6
PHANTOM
 62
     8
370
     0
100
AcDbLine
 10
2218.1127336111
 20
843.3595224404
 30
0.0
 11
2217.1127464857
 21
843.3595224404
 31
0.0
  0
ARC
  5
2F8
330
1F
100
AcDbEntity
  8
0
  6
PHANTOM
 62
     8
370
     0
100
AcDbCircle
 10
2216.1127395716
 20
950.459516623
 30
0.0
 40
2.0
100
AcDbArc
 50
0.0
 51
90.0
  0
LINE
  5
2F9
330
1F
100
AcDbEntity
  8
0
  6
PHANTOM
 62
     8
370
     0
100
AcDbLine
 10
1832.1127411213
 20
952.4595159226
 30
0.0
 11
2216.1127444592
 21
952.4595159226
 31
0.0
  0
ARC
  5
2FA
330
1F
100
AcDbEntity
  8
0
  6
PHANTOM
 62
     8
370
     0
100
AcDbCircle
 10
1832.1127395716
 20
950.459516623
 30
0.0
 40
2.0
100
AcDbArc
 50
90.0
 51
180.0
  0
LINE
  5
2FB
330
1F
100
AcDbEntity
  8
0
  6
PHANTOM
 62
     8
370
     0
100
AcDbLine
 10
1830.1127370682
 20
843.3595224404
 30
0.0
 11
1830.1127370682
 21
950.4595174574
 31
0.0
  0
ARC
  5
2FC
330
1F
100
AcDbEntity
  8
0
  6
PHANTOM
 62
     8
370
     0
100
AcDbCircle
 10
1832.1127395716
 20
843.359516623
 30
0.0
 40
2.0
100
AcDbArc
 50
180.0
 51
270.0
  0
LINE
  5
2FD
330
1F
100
AcDbEntity
  8
0
  6
PHANTOM
 62
     8
370
     0
100
AcDbLine
 10
2218.1127336111
 20
950.4595174574
 30
0.0
 11
2218.1127336111
 21
843.3595224404
 31
0.0
  0
LINE
  5
2FE
330
1F
100
AcDbEntity
  8
0
  6
PHANTOM
 62
     8
370
     0
100
AcDbLine
 10
2218.1127336111
 20
950.4595174574
 30
0.0
 11
2217.1127464857
 21
950.4595174574
 31
0.0
  0
LINE
  5
2FF
330
1F
100
AcDbEntity
  8
0
  6
PHANTOM
 62
     8
370
     0
100
AcDbLine
 10
2216.1127444592
 20
952.4595159226
 30
0.0
 11
2216.1127444592
 21
951.4595157587
 31
0.0
  0
LINE
  5
300
330
1F
100
AcDbEntity
  8
0
  6
PHANTOM
 62
     8
370
     0
100
AcDbLine
 10
1832.1127411213
 20
952.4595159226
 30
0.0
 11
1832.1127411213
 21
951.4595157587
 31
0.0
  0
LINE
  5
301
330
1F
100
AcDbEntity
  8
0
  6
PHANTOM
 62
     8
370
     0
100
AcDbLine
 10
1831.1127390947
 20
843.3595224404
 30
0.0
 11
1830.1127370682
 21
843.3595224404
 31
0.0
  0
LINE
  5
302
330
1F
100
AcDbEntity
  8
0
  6
PHANTOM
 62
     8
370
     0
100
AcDbLine
 10
1831.1127390947
 20
950.4595174574
 30
0.0
 11
1830.1127370682
 21
950.4595174574
 31
0.0
  0
LINE
  5
303
330
1F
100
AcDbEntity
  8
0
  6
PHANTOM
 62
     8
370
     0
100
AcDbLine
 10
2217.1127464857
 20
950.4595174574
 30
0.0
 11
2216.1127444592
 21
950.4595174574
 31
0.0
  0
LINE
  5
304
330
1F
100
AcDbEntity
  8
0
  6
PHANTOM
 62
     8
370
     0
100
AcDbLine
 10
2216.1127444592
 20
843.3595224404
 30
0.0
 11
2217.1127464857
 21
843.3595224404
 31
0.0
  0
LINE
  5
305
330
1F
100
AcDbEntity
  8
0
  6
PHANTOM
 62
     8
370
     0
100
AcDbLine
 10
2216.1127444592
 20
843.3595224404
 30
0.0
 11
2216.1127444592
 21
950.4595174574
 31
0.0
  0
LINE
  5
306
330
1F
100
AcDbEntity
  8
0
  6
PHANTOM
 62
     8
370
     0
100
AcDbLine
 10
2216.1127444592
 20
950.4595174574
 30
0.0
 11
2216.1127444592
 21
951.4595157587
 31
0.0
  0
LINE
  5
307
330
1F
100
AcDbEntity
  8
0
  6
PHANTOM
 62
     8
370
     0
100
AcDbLine
 10
1832.1127411213
 20
951.4595157587
 30
0.0
 11
1832.1127411213
 21
950.4595174574
 31
0.0
  0
LINE
  5
308
330
1F
100
AcDbEntity
  8
0
  6
PHANTOM
 62
     8
370
     0
100
AcDbLine
 10
2216.1127444592
 20
950.4595174574
 30
0.0
 11
1832.1127411213
 21
950.4595174574
 31
0.0
  0
LINE
  5
309
330
1F
100
AcDbEntity
  8
0
  6
PHANTOM
 62
     8
370
     0
100
AcDbLine
 10
1832.1127411213
 20
843.3595224404
 30
0.0
 11
1832.1127411213
 21
842.3595204138
 31
0.0
  0
LINE
  5
30A
330
1F
100
AcDbEntity
  8
0
  6
PHANTOM
 62
     8
370
     0
100
AcDbLine
 10
1832.1127411213
 20
843.3595224404
 30
0.0
 11
2216.1127444592
 21
843.3595224404
 31
0.0
  0
LINE
  5
30B
330
1F
100
AcDbEntity
  8
0
  6
PHANTOM
 62
     8
370
     0
100
AcDbLine
 10
2216.1127444592
 20
842.3595204138
 30
0.0
 11
2216.1127444592
 21
843.3595224404
 31
0.0
  0
LINE
  5
30C
330
1F
100
AcDbEntity
  8
0
  6
PHANTOM
 62
     8
370
     0
100
AcDbLine
 10
1831.1127390947
 20
843.3595224404
 30
0.0
 11
1832.1127411213
 21
843.3595224404
 31
0.0
  0
LINE
  5
30D
330
1F
100
AcDbEntity
  8
0
  6
PHANTOM
 62
     8
370
     0
100
AcDbLine
 10
1832.1127411213
 20
950.4595174574
 30
0.0
 11
1831.1127390947
 21
950.4595174574
 31
0.0
  0
LINE
  5
30E
330
1F
100
AcDbEntity
  8
0
  6
PHANTOM
 62
     8
370
     0
100
AcDbLine
 10
1832.1127411213
 20
950.4595174574
 30
0.0
 11
1832.1127411213
 21
843.3595224404
 31
0.0
  0
LWPOLYLINE
  5
30F
330
1F
100
AcDbEntity
  8
0
  6
Continuous
 62
     7
370
    15
100
AcDbPolyline
 90
        3
 70
   128
 43
0.0
 10
914.1240789199
 20
1307.2439288035
 10
914.0873475576
 20
1307.4195985928
 10
913.980893662
 20
1307.9287116662
  0
LWPOLYLINE
  5
310
330
1F
100
AcDbEntity
  8
0
  6
Continuous
 62
     7
370
    15
100
AcDbPolyline
 90
        3
 70
   128
 43
0.0
 10
787.814587226
 20
1307.2440331117
 10
787.8513260389
 20
1307.4197178021
 10
787.9577724839
 20
1307.9288159743
  0
SPLINE
  5
311
330
1F
100
AcDbEntity
  8
0
  6
Continuous
 62
     7
370
    15
100
AcDbSpline
210
0.0
220
0.0
230
1.0
 70
     8
 71
     3
 72
    26
 73
    22
 74
     0
 42
0.000000001
 43
0.00000001
 40
0.0
 40
0.0
 40
0.0
 40
0.0
 40
0.0001126745748143
 40
0.054376877480564
 40
0.1086401534104336
 40
0.1628037765171199
 40
0.2169665115657384
 40
0.2709274120920308
 40
0.3248878241661577
 40
0.3787041297500123
 40
0.4325202492448952
 40
0.5000018090879208
 40
0.5537315551995097
 40
0.6074613840868057
 40
0.6611898551893199
 40
0.714918615577422
 40
0.7686782761036409
 40
0.8224385330314838
 40
0.8762877051699227
 40
0.9301378456293201
 40
1.0
 40
1.0
 40
1.0
 40
1.0
 10
826.995806639852
 20
1455.776284007755
 30
0.0
 10
826.9958238561936
 20
1455.779101255837
 30
0.0
 10
827.0041324821703
 20
1457.138708372457
 30
0.0
 10
827.2557378388138
 20
1459.858860149113
 30
0.0
 10
828.2978634673933
 20
1463.811649858214
 30
0.0
 10
830.0028297189465
 20
1467.525774039028
 30
0.0
 10
832.2931384513673
 20
1470.9013974862
 30
0.0
 10
835.1263223158202
 20
1473.829330147364
 30
0.0
 10
838.3963875397612
 20
1476.244891477154
 30
0.0
 10
842.0298048517974
 20
1478.061971345688
 30
0.0
 10
846.2361478900085
 20
1479.353342136627
 30
0.0
 10
850.6264961748836
 20
1479.82052020933
 30
0.0
 10
855.0060673221344
 20
1479.444156564783
 30
0.0
 10
858.9309742474975
 20
1478.436176990097
 30
0.0
 10
862.6246257702015
 20
1476.771350424294
 30
0.0
 10
865.995466473066
 20
1474.521659999268
 30
0.0
 10
868.9309743850346
 20
1471.727731490431
 30
0.0
 10
871.3735843476842
 20
1468.487554065164
 30
0.0
 10
873.2133413762119
 20
1464.875901653711
 30
0.0
 10
874.6158444466653
 20
1460.626035518755
 30
0.0
 10
874.825128311578
 20
1457.526508023211
 30
0.0
 10
874.9433139914889
 20
1455.77615921053
 30
0.0
  0
SPLINE
  5
312
330
1F
100
AcDbEntity
  8
0
  6
Continuous
 62
     7
370
    15
100
AcDbSpline
210
0.0
220
0.0
230
1.0
 70
     8
 71
     3
 72
    26
 73
    22
 74
     0
 42
0.000000001
 43
0.00000001
 40
0.0
 40
0.0
 40
0.0
 40
0.0
 40
0.0001138275703683
 40
0.0543778669711527
 40
0.1086409671156705
 40
0.162804421498616
 40
0.2169669944949389
 40
0.2709277403969874
 40
0.3248879726381409
 40
0.378704116960262
 40
0.432520063206075
 40
0.5000014270609651
 40
0.5537310064526455
 40
0.6074606582468862
 40
0.6611889667781453
 40
0.7149175654678678
 40
0.7686770449094351
 40
0.8224371266363228
 40
0.8762861512304203
 40
0.9301360993563358
 40
1.0
 40
1.0
 40
1.0
 40
1.0
 10
874.9433139914889
 20
1455.77615921053
 30
0.0
 10
874.9432967788167
 20
1455.773313091464
 30
0.0
 10
874.9350739168693
 20
1454.413661089361
 30
0.0
 10
874.683351627799
 20
1451.693503103745
 30
0.0
 10
873.6412755918701
 20
1447.740703697663
 30
0.0
 10
871.9363037597891
 20
1444.026578789133
 30
0.0
 10
869.6460010241315
 20
1440.650952217825
 30
0.0
 10
866.8128213983117
 20
1437.7230146565
 30
0.0
 10
863.5427588597071
 20
1435.307449119818
 30
0.0
 10
859.9093441407093
 20
1433.490364976894
 30
0.0
 10
855.703002358052
 20
1432.198988687948
 30
0.0
 10
851.3126541968098
 20
1431.731805936858
 30
0.0
 10
846.9330827697473
 20
1432.108165281969
 30
0.0
 10
843.0081738183167
 20
1433.116136862214
 30
0.0
 10
839.314521131797
 20
1434.780961281333
 30
0.0
 10
835.9436780395122
 20
1437.030647897042
 30
0.0
 10
833.0081666602996
 20
1439.824572274902
 30
0.0
 10
830.5655529196424
 20
1443.064746488181
 30
0.0
 10
828.7257906894301
 20
1446.676395786817
 30
0.0
 10
827.3232674389674
 20
1450.926308253027
 30
0.0
 10
827.113990102587
 20
1454.025885393867
 30
0.0
 10
826.995806639852
 20
1455.776284007755
 30
0.0
  0
CIRCLE
  5
313
330
1F
100
AcDbEntity
  8
0
  6
Continuous
 62
     7
370
    15
100
AcDbCircle
 10
850.9695603157
 20
1455.7761631609
 30
0.0
 40
16.70327049847174
  0
LINE
  5
314
330
1F
100
AcDbEntity
  8
0
  6
Continuous
 62
     7
370
    15
100
AcDbLine
 10
1423.0008198524
 20
1781.4261620179
 30
0.0
 11
278.9383007789
 21
1781.4261620179
 31
0.0
  0
CIRCLE
  5
315
330
1F
100
AcDbEntity
  8
0
  6
Continuous
 62
     7
370
    15
100
AcDbCircle
 10
850.9695603157
 20
1696.4261555806
 30
0.0
 40
17.5
  0
CIRCLE
  5
316
330
1F
100
AcDbEntity
  8
0
  6
Continuous
 62
     7
370
    15
100
AcDbCircle
 10
750.9695603157
 20
1696.4261555806
 30
0.0
 40
17.5
  0
CIRCLE
  5
317
330
1F
100
AcDbEntity
  8
0
  6
Continuous
 62
     7
370
    15
100
AcDbCircle
 10
950.9695603157
 20
1696.4261555806
 30
0.0
 40
17.5
  0
LINE
  5
318
330
1F
100
AcDbEntity
  8
0
  6
Continuous
 62
     7
370
    15
100
AcDbLine
 10
275.9441210533
 20
1781.4261620179
 30
0.0
 11
278.9383007789
 21
1781.4261620179
 31
0.0
  0
LINE
  5
319
330
1F
100
AcDbEntity
  8
0
  6
Continuous
 62
     7
370
    15
100
AcDbLine
 10
1423.0008198524
 20
1781.4261620179
 30
0.0
 11
1425.9949995781
 21
1781.4261620179
 31
0.0
  0
LINE
  5
31A
330
1F
100
AcDbEntity
  8
0
  6
Continuous
 62
     7
370
    15
100
AcDbLine
 10
655.9695674682
 20
1751.4261608258
 30
0.0
 11
325.9695841575
 21
1751.4261608258
 31
0.0
  0
ARC
  5
31B
330
1F
100
AcDbEntity
  8
0
  6
Continuous
 62
     7
370
    15
100
AcDbCircle
 10
325.9695603157
 20
1731.4261555806
 30
0.0
 40
20.00000000000006
100
AcDbArc
 50
90.0
 51
180.0
  0
LINE
  5
31C
330
1F
100
AcDbEntity
  8
0
  6
Continuous
 62
     7
370
    15
100
AcDbLine
 10
1375.9695364738
 20
1751.4261608258
 30
0.0
 11
1045.9695531631
 21
1751.4261608258
 31
0.0
  0
ARC
  5
31D
330
1F
100
AcDbEntity
  8
0
  6
Continuous
 62
     7
370
    15
100
AcDbCircle
 10
1375.9695603157
 20
1731.4261555806
 30
0.0
 40
20.0
100
AcDbArc
 50
0.0
 51
90.0
  0
ARC
  5
31E
330
1F
100
AcDbEntity
  8
0
  6
Continuous
 62
     7
370
    15
100
AcDbCircle
 10
655.9695603157
 20
1731.4261555806
 30
0.0
 40
20.0
100
AcDbArc
 50
0.0
 51
90.0
  0
ARC
  5
31F
330
1F
100
AcDbEntity
  8
0
  6
Continuous
 62
     7
370
    15
100
AcDbCircle
 10
1045.9695603157
 20
1731.4261555806
 30
0.0
 40
20.0
100
AcDbArc
 50
90.0
 51
180.0
  0
LINE
  5
320
330
1F
100
AcDbEntity
  8
0
  6
Continuous
 62
     7
370
    15
100
AcDbLine
 10
1025.9695573354
 20
1731.426150097
 30
0.0
 11
1025.9695573354
 21
1676.4261578456
 31
0.0
  0
LINE
  5
321
330
1F
100
AcDbEntity
  8
0
  6
Continuous
 62
     7
370
    15
100
AcDbLine
 10
1395.969577005
 20
1266.4261614219
 30
0.0
 11
1395.969577005
 21
1731.426150097
 31
0.0
  0
LINE
  5
322
330
1F
100
AcDbEntity
  8
0
  6
Continuous
 62
     7
370
    15
100
AcDbLine
 10
305.9695436264
 20
1731.426150097
 30
0.0
 11
305.9695436264
 21
1266.4261614219
 31
0.0
  0
LINE
  5
323
330
1F
100
AcDbEntity
  8
0
  6
Continuous
 62
     7
370
    15
100
AcDbLine
 10
675.9695632959
 20
1676.4261578456
 30
0.0
 11
675.9695632959
 21
1731.426150097
 31
0.0
  0
ARC
  5
324
330
1F
100
AcDbEntity
  8
0
  6
Continuous
 62
     7
370
    15
100
AcDbCircle
 10
1005.9695603157
 20
1676.4261555806
 30
0.0
 40
20.0
100
AcDbArc
 50
270.0
 51
0.0
  0
ARC
  5
325
330
1F
100
AcDbEntity
  8
0
  6
Continuous
 62
     7
370
    15
100
AcDbCircle
 10
695.9695603157
 20
1676.4261555806
 30
0.0
 40
20.0
100
AcDbArc
 50
180.0
 51
270.0
  0
LINE
  5
326
330
1F
100
AcDbEntity
  8
0
  6
Continuous
 62
     7
370
    15
100
AcDbLine
 10
1005.9695615078
 20
1656.4261620179
 30
0.0
 11
695.9695591236
 21
1656.4261620179
 31
0.0
  0
ARC
  5
327
330
1F
100
AcDbEntity
  8
0
  6
Continuous
 62
     7
370
    15
100
AcDbCircle
 10
1375.9695603157
 20
1266.4261555806
 30
0.0
 40
20.0
100
AcDbArc
 50
270.0
 51
0.0
  0
ARC
  5
328
330
1F
100
AcDbEntity
  8
0
  6
Continuous
 62
     7
370
    15
100
AcDbCircle
 10
325.9695603157
 20
1266.4261555806
 30
0.0
 40
20.00000000000006
100
AcDbArc
 50
180.0
 51
270.0
  0
LINE
  5
329
330
1F
100
AcDbEntity
  8
0
  6
Continuous
 62
     7
370
    15
100
AcDbLine
 10
325.9695841575
 20
1246.426150693
 30
0.0
 11
1375.9695364738
 21
1246.426150693
 31
0.0
  0
LINE
  5
32A
330
1F
100
AcDbEntity
  8
0
  6
Continuous
 62
     7
370
    15
100
AcDbLine
 10
262.9695607925
 20
1781.4261620179
 30
0.0
 11
275.9441210533
 21
1781.4261620179
 31
0.0
  0
LINE
  5
32B
330
1F
100
AcDbEntity
  8
0
  6
Continuous
 62
     7
370
    15
100
AcDbLine
 10
1425.9949995781
 20
1781.4261620179
 30
0.0
 11
1438.9695598388
 21
1781.4261620179
 31
0.0
  0
ARC
  5
32C
330
1F
100
AcDbEntity
  8
0
  6
Continuous
 62
     7
370
    15
100
AcDbCircle
 10
850.9695603157
 20
1335.4261555806
 30
0.0
 40
275.0000000000001
100
AcDbArc
 50
51.4539933098
 51
128.5460066902
  0
ARC
  5
32D
330
1F
100
AcDbEntity
  8
0
  6
Continuous
 62
     7
370
    15
100
AcDbCircle
 10
758.5468183279
 20
1451.4261555806
 30
0.0
 40
126.6828963452582
100
AcDbArc
 50
128.5460066902
 51
231.4539933098
  0
ARC
  5
32E
330
1F
100
AcDbEntity
  8
0
  6
Continuous
 62
     7
370
    15
100
AcDbCircle
 10
943.3923023034
 20
1451.4261555806
 30
0.0
 40
126.6828963452579
100
AcDbArc
 50
308.5460066902
 51
51.4539933098
  0
ARC
  5
32F
330
1F
100
AcDbEntity
  8
0
  6
Continuous
 62
     7
370
    15
100
AcDbCircle
 10
850.9695603157
 20
1567.4261555806
 30
0.0
 40
274.9999999999998
100
AcDbArc
 50
231.4539933098
 51
308.5460066902
  0
LINE
  5
330
330
1F
100
AcDbEntity
  8
0
  6
Continuous
 62
     7
370
    15
100
AcDbLine
 10
250.9695364738
 20
1231.426150097
 30
0.0
 11
250.9695364738
 21
1781.4261620179
 31
0.0
  0
LINE
  5
331
330
1F
100
AcDbEntity
  8
0
  6
Continuous
 62
     7
370
    15
100
AcDbLine
 10
250.9695364738
 20
1781.4261620179
 30
0.0
 11
262.9695607925
 21
1781.4261620179
 31
0.0
  0
LINE
  5
332
330
1F
100
AcDbEntity
  8
0
  6
Continuous
 62
     7
370
    15
100
AcDbLine
 10
1450.9695841575
 20
1781.4261620179
 30
0.0
 11
1450.9695841575
 21
1231.426150097
 31
0.0
  0
LINE
  5
333
330
1F
100
AcDbEntity
  8
0
  6
Continuous
 62
     7
370
    15
100
AcDbLine
 10
1438.9695598388
 20
1781.4261620179
 30
0.0
 11
1450.9695841575
 21
1781.4261620179
 31
0.0
  0
ARC
  5
334
330
1F
100
AcDbEntity
  8
0
  6
Continuous
 62
     7
370
    15
100
AcDbCircle
 10
290.9695603157
 20
1231.4261555806
 30
0.0
 40
40.00000000000003
100
AcDbArc
 50
180.0
 51
270.0
  0
ARC
  5
335
330
1F
100
AcDbEntity
  8
0
  6
Continuous
 62
     7
370
    15
100
AcDbCircle
 10
1410.9695603157
 20
1231.4261555806
 30
0.0
 40
40.0
100
AcDbArc
 50
270.0
 51
0.0
  0
LINE
  5
336
330
1F
100
AcDbEntity
  8
0
  6
Continuous
 62
     7
370
    15
100
AcDbLine
 10
1410.9695626999
 20
1191.4261584416
 30
0.0
 11
290.9695579315
 21
1191.4261584416
 31
0.0
  0
LWPOLYLINE
  5
337
330
1F
100
AcDbEntity
  8
0
  6
PHANTOM
 62
     8
370
     0
100
AcDbPolyline
 90
       32
 70
   128
 43
0.0
 10
913.980893662
 20
1307.9287116662
 10
913.977235427
 20
1307.9462056294
 10
913.7940181995
 20
1308.8224833146
 10
913.5381205583
 20
1310.0463454858
 10
913.2101683522
 20
1311.614841713
 10
912.8109364415
 20
1313.5242318049
 10
912.3413859511
 20
1315.769941105
 10
911.8026344681
 20
1318.3466051951
 10
911.1959746683
 20
1321.2480400935
 10
910.5228594149
 20
1324.4673316613
 10
909.7848980332
 20
1327.9967461959
 10
908.9838563109
 20
1331.8278645411
 10
908.1216527725
 20
1335.9514926806
 10
907.2003475035
 20
1340.3577809468
 10
906.222149601
 20
1345.0361867681
 10
905.1893948222
 20
1349.9754970208
 10
904.1045604849
 20
1355.1639099852
 10
902.9702356661
 20
1360.5889906422
 10
901.7891398276
 20
1366.2377824322
 10
900.5641004646
 20
1372.0967401997
 10
899.2980419303
 20
1378.1518643037
 10
897.994000336
 20
1384.3886559144
 10
896.6550937498
 20
1390.7921989695
 10
895.2845296467
 20
1397.3471527234
 10
893.8855825568
 20
1404.0378486052
 10
892.4616015161
 20
1410.8482641414
 10
891.0159951652
 20
1417.7621049121
 10
889.5522242988
 20
1424.7628306285
 10
888.0737906898
 20
1431.8336849347
 10
886.5842333639
 20
1438.9577475623
 10
885.0871099735
 20
1446.1179715827
 10
883.5860116983
 20
1453.2972206608
  0
LWPOLYLINE
  5
338
330
1F
100
AcDbEntity
  8
0
  6
PHANTOM
 62
     8
370
     0
100
AcDbPolyline
 90
       31
 70
   128
 43
0.0
 10
883.5872000659
 20
1458.2606773138
 10
885.08822011
 20
1465.4397503719
 10
886.5852578188
 20
1472.5997848682
 10
888.0747331882
 20
1479.7236477271
 10
889.5530811155
 20
1486.7942915544
 10
891.0167663003
 20
1493.7947993413
 10
892.4622832442
 20
1500.7084165946
 10
893.8861748779
 20
1507.518604888
 10
895.2850325609
 20
1514.2090623513
 10
896.655507257
 20
1520.763781412
 10
897.9943281615
 20
1527.1670785979
 10
899.2982803488
 20
1533.4036355153
 10
900.5642532015
 20
1539.4585212007
 10
901.7892106081
 20
1545.3172480002
 10
902.9702244902
 20
1550.9658013717
 10
904.1044673527
 20
1556.3906585112
 10
905.1892271841
 20
1561.5788479582
 10
906.2219037319
 20
1566.5179495946
 10
907.2000345791
 20
1571.1961393491
 10
908.1212690676
 20
1575.6022339002
 10
908.9834130014
 20
1579.7256832257
 10
909.784395119
 20
1583.5566153065
 10
910.5223006213
 20
1587.0858733788
 10
911.1953637207
 20
1590.3050084844
 10
911.801978817
 20
1593.206316723
 10
912.3406893218
 20
1595.7828616038
 10
912.8102062846
 20
1598.0284665957
 10
913.2094046677
 20
1599.9377672807
 10
913.5373382474
 20
1601.5061890021
 10
913.7932060862
 20
1602.7299766675
 10
913.870841136
 20
1603.101268901
  0
LWPOLYLINE
  5
339
330
1F
100
AcDbEntity
  8
0
  6
PHANTOM
 62
     8
370
     0
100
AcDbPolyline
 90
       32
 70
   128
 43
0.0
 10
787.9577724839
 20
1307.9288159743
 10
787.9614381695
 20
1307.9463248387
 10
788.1446628476
 20
1308.8226323262
 10
788.4005679393
 20
1310.0465093985
 10
788.7285350466
 20
1311.6150503293
 10
789.1277818585
 20
1313.5244851247
 10
789.5973509753
 20
1315.7702540294
 10
790.1361210848
 20
1318.346962823
 10
790.7428032363
 20
1321.2484871283
 10
791.4159445668
 20
1324.4678383008
 10
792.1539357508
 20
1327.9973422423
 10
792.9550072754
 20
1331.8285350934
 10
793.8172443414
 20
1335.952267541
 10
794.7385831381
 20
1340.3586452142
 10
795.7168182934
 20
1345.037147893
 10
796.7496103252
 20
1349.9765699044
 10
797.8344856406
 20
1355.1650871769
 10
798.9688514376
 20
1360.5902870432
 10
800.1499882544
 20
1366.2391831413
 10
801.3750723208
 20
1372.0982601181
 10
802.6411718333
 20
1378.1535034314
 10
803.9452581311
 20
1384.3904142514
 10
805.2842094207
 20
1390.7940690652
 10
806.6548219526
 20
1397.3491420284
 10
808.053813746
 20
1404.039949669
 10
809.4778394902
 20
1410.8504806891
 10
810.9234905446
 20
1417.7644369439
 10
812.3873061145
 20
1424.7652706936
 10
813.865784427
 20
1431.8362255827
 10
815.3553901816
 20
1438.9603887931
 10
816.8525508249
 20
1446.1207040832
 10
818.3536900783
 20
1453.3000425682
  0
LWPOLYLINE
  5
33A
330
1F
100
AcDbEntity
  8
0
  6
PHANTOM
 62
     8
370
     0
100
AcDbPolyline
 90
       31
 70
   128
 43
0.0
 10
818.3548858965
 20
1458.2465677768
 10
816.8537168408
 20
1465.4260939233
 10
815.3565226699
 20
1472.5866115433
 10
813.8668871129
 20
1479.7109845341
 10
812.3883715475
 20
1486.7821638719
 10
810.9245187247
 20
1493.783226727
 10
809.4788304175
 20
1500.6974158123
 10
808.0547636951
 20
1507.5081889764
 10
806.6557309235
 20
1514.1992424861
 10
805.2850736881
 20
1520.7545650438
 10
803.9460814202
 20
1527.158469452
 10
802.641950419
 20
1533.3956335917
 10
801.3758099282
 20
1539.4511227742
 10
800.1506811584
 20
1545.3104456201
 10
798.9694996381
 20
1550.9595875874
 10
797.8350928629
 20
1556.3850258723
 10
796.7501765693
 20
1561.5737741128
 10
795.7173472846
 20
1566.513412191
 10
794.7390748764
 20
1571.1921234861
 10
793.8176988269
 20
1575.5987172261
 10
792.9554282332
 20
1579.7226359383
 10
792.154323181
 20
1583.5540150538
 10
791.4163059199
 20
1587.0836829081
 10
790.7431347871
 20
1590.3031979934
 10
790.1364302838
 20
1593.2048489586
 10
789.5976340974
 20
1595.7816993133
 10
789.1280426288
 20
1598.0275725261
 10
788.7287809158
 20
1599.9370967284
 10
788.4007989073
 20
1601.505712165
 10
788.144886365
 20
1602.7296637431
 10
788.0748956109
 20
1603.0644034282
  0
LINE
  5
33B
330
1F
100
AcDbEntity
  8
0
  6
PHANTOM
 62
     8
370
     0
100
AcDbLine
 10
295.9695531631
 20
1219.3948631421
 30
0.0
 11
1405.9695674682
 21
1219.3948631421
 31
0.0
  0
ARC
  5
33C
330
1F
100
AcDbEntity
  8
0
  6
PHANTOM
 62
     8
370
     0
100
AcDbCircle
 10
295.9695603157
 20
1236.4261555806
 30
0.0
 40
17.03128057732874
100
AcDbArc
 50
180.0
 51
270.0
  0
LINE
  5
33D
330
1F
100
AcDbEntity
  8
0
  6
PHANTOM
 62
     8
370
     0
100
AcDbLine
 10
278.9383007789
 20
1781.4261620179
 30
0.0
 11
278.9383007789
 21
1236.4261602298
 31
0.0
  0
LINE
  5
33E
330
1F
100
AcDbEntity
  8
0
  6
PHANTOM
 62
     8
370
     0
100
AcDbLine
 10
1423.0008198524
 20
1236.4261602298
 30
0.0
 11
1423.0008198524
 21
1781.4261620179
 31
0.0
  0
ARC
  5
33F
330
1F
100
AcDbEntity
  8
0
  6
PHANTOM
 62
     8
370
     0
100
AcDbCircle
 10
1405.9695603157
 20
1236.4261555806
 30
0.0
 40
17.03128057732874
100
AcDbArc
 50
270.0
 51
0.0
  0
ARC
  5
340
330
1F
100
AcDbEntity
  8
0
  6
PHANTOM
 62
     8
370
     0
100
AcDbCircle
 10
325.9695603157
 20
1731.4261555806
 30
0.0
 40
23.00000000000006
100
AcDbArc
 50
90.0
 51
180.0
  0
LINE
  5
341
330
1F
100
AcDbEntity
  8
0
  6
PHANTOM
 62
     8
370
     0
100
AcDbLine
 10
302.9695822502
 20
1266.4261614219
 30
0.0
 11
302.9695822502
 21
1731.426150097
 31
0.0
  0
ARC
  5
342
330
1F
100
AcDbEntity
  8
0
  6
PHANTOM
 62
     8
370
     0
100
AcDbCircle
 10
325.9695603157
 20
1266.4261555806
 30
0.0
 40
23.00000000000023
100
AcDbArc
 50
180.0
 51
270.0
  0
LINE
  5
343
330
1F
100
AcDbEntity
  8
0
  6
PHANTOM
 62
     8
370
     0
100
AcDbLine
 10
1375.9695364738
 20
1243.4261595145
 30
0.0
 11
325.9695841575
 21
1243.4261595145
 31
0.0
  0
ARC
  5
344
330
1F
100
AcDbEntity
  8
0
  6
PHANTOM
 62
     8
370
     0
100
AcDbCircle
 10
1375.9695603157
 20
1266.4261555806
 30
0.0
 40
23.00000000000023
100
AcDbArc
 50
270.0
 51
0.0
  0
LINE
  5
345
330
1F
100
AcDbEntity
  8
0
  6
PHANTOM
 62
     8
370
     0
100
AcDbLine
 10
1398.9695383812
 20
1731.426150097
 30
0.0
 11
1398.9695383812
 21
1266.4261614219
 31
0.0
  0
ARC
  5
346
330
1F
100
AcDbEntity
  8
0
  6
PHANTOM
 62
     8
370
     0
100
AcDbCircle
 10
1375.9695603157
 20
1731.4261555806
 30
0.0
 40
23.0
100
AcDbArc
 50
0.0
 51
90.0
  0
LINE
  5
347
330
1F
100
AcDbEntity
  8
0
  6
PHANTOM
 62
     8
370
     0
100
AcDbLine
 10
1045.9695531631
 20
1754.4261520043
 30
0.0
 11
1375.9695364738
 21
1754.4261520043
 31
0.0
  0
ARC
  5
348
330
1F
100
AcDbEntity
  8
0
  6
PHANTOM
 62
     8
370
     0
100
AcDbCircle
 10
1045.9695603157
 20
1731.4261555806
 30
0.0
 40
23.0
100
AcDbArc
 50
90.0
 51
180.0
  0
LINE
  5
349
330
1F
100
AcDbEntity
  8
0
  6
PHANTOM
 62
     8
370
     0
100
AcDbLine
 10
1022.9695661569
 20
1676.4261578456
 30
0.0
 11
1022.9695661569
 21
1731.426150097
 31
0.0
  0
ARC
  5
34A
330
1F
100
AcDbEntity
  8
0
  6
PHANTOM
 62
     8
370
     0
100
AcDbCircle
 10
1005.9695603157
 20
1676.4261555806
 30
0.0
 40
17.00000000000011
100
AcDbArc
 50
270.0
 51
0.0
  0
LINE
  5
34B
330
1F
100
AcDbEntity
  8
0
  6
PHANTOM
 62
     8
370
     0
100
AcDbLine
 10
695.9695591236
 20
1659.4261531964
 30
0.0
 11
1005.9695615078
 21
1659.4261531964
 31
0.0
  0
ARC
  5
34C
330
1F
100
AcDbEntity
  8
0
  6
PHANTOM
 62
     8
370
     0
100
AcDbCircle
 10
695.9695603157
 20
1676.4261555806
 30
0.0
 40
17.0
100
AcDbArc
 50
180.0
 51
270.0
  0
LINE
  5
34D
330
1F
100
AcDbEntity
  8
0
  6
PHANTOM
 62
     8
370
     0
100
AcDbLine
 10
678.9695544744
 20
1731.426150097
 30
0.0
 11
678.9695544744
 21
1676.4261578456
 31
0.0
  0
ARC
  5
34E
330
1F
100
AcDbEntity
  8
0
  6
PHANTOM
 62
     8
370
     0
100
AcDbCircle
 10
655.9695603157
 20
1731.4261555806
 30
0.0
 40
23.0
100
AcDbArc
 50
0.0
 51
90.0
  0
LINE
  5
34F
330
1F
100
AcDbEntity
  8
0
  6
PHANTOM
 62
     8
370
     0
100
AcDbLine
 10
325.9695841575
 20
1754.4261520043
 30
0.0
 11
655.9695674682
 21
1754.4261520043
 31
0.0
  0
LINE
  5
350
330
1F
100
AcDbEntity
  8
0
  6
PHANTOM
 62
     8
370
     0
100
AcDbLine
 10
278.9383007789
 20
1236.4261602298
 30
0.0
 11
275.9441210533
 21
1236.4261602298
 31
0.0
  0
LINE
  5
351
330
1F
100
AcDbEntity
  8
0
  6
PHANTOM
 62
     8
370
     0
100
AcDbLine
 10
275.9441210533
 20
1236.4261602298
 30
0.0
 11
275.9441210533
 21
1781.4261620179
 31
0.0
  0
LINE
  5
352
330
1F
100
AcDbEntity
  8
0
  6
PHANTOM
 62
     8
370
     0
100
AcDbLine
 10
1425.9949995781
 20
1781.4261620179
 30
0.0
 11
1425.9949995781
 21
1236.4261602298
 31
0.0
  0
LINE
  5
353
330
1F
100
AcDbEntity
  8
0
  6
PHANTOM
 62
     8
370
     0
100
AcDbLine
 10
1423.0008198524
 20
1236.4261602298
 30
0.0
 11
1425.9949995781
 21
1236.4261602298
 31
0.0
  0
LINE
  5
354
330
1F
100
AcDbEntity
  8
0
  6
PHANTOM
 62
     8
370
     0
100
AcDbLine
 10
655.9695674682
 20
1754.4261520043
 30
0.0
 11
655.9695674682
 21
1751.4261608258
 31
0.0
  0
LINE
  5
355
330
1F
100
AcDbEntity
  8
0
  6
PHANTOM
 62
     8
370
     0
100
AcDbLine
 10
325.9695841575
 20
1754.4261520043
 30
0.0
 11
325.9695841575
 21
1751.4261608258
 31
0.0
  0
LINE
  5
356
330
1F
100
AcDbEntity
  8
0
  6
PHANTOM
 62
     8
370
     0
100
AcDbLine
 10
302.9695822502
 20
1731.426150097
 30
0.0
 11
305.9695436264
 21
1731.426150097
 31
0.0
  0
LINE
  5
357
330
1F
100
AcDbEntity
  8
0
  6
PHANTOM
 62
     8
370
     0
100
AcDbLine
 10
1045.9695531631
 20
1751.4261608258
 30
0.0
 11
1045.9695531631
 21
1754.4261520043
 31
0.0
  0
LINE
  5
358
330
1F
100
AcDbEntity
  8
0
  6
PHANTOM
 62
     8
370
     0
100
AcDbLine
 10
1375.9695364738
 20
1751.4261608258
 30
0.0
 11
1375.9695364738
 21
1754.4261520043
 31
0.0
  0
LINE
  5
359
330
1F
100
AcDbEntity
  8
0
  6
PHANTOM
 62
     8
370
     0
100
AcDbLine
 10
1398.9695383812
 20
1731.426150097
 30
0.0
 11
1395.969577005
 21
1731.426150097
 31
0.0
  0
LINE
  5
35A
330
1F
100
AcDbEntity
  8
0
  6
PHANTOM
 62
     8
370
     0
100
AcDbLine
 10
675.9695632959
 20
1731.426150097
 30
0.0
 11
678.9695544744
 21
1731.426150097
 31
0.0
  0
LINE
  5
35B
330
1F
100
AcDbEntity
  8
0
  6
PHANTOM
 62
     8
370
     0
100
AcDbLine
 10
1025.9695573354
 20
1731.426150097
 30
0.0
 11
1022.9695661569
 21
1731.426150097
 31
0.0
  0
LINE
  5
35C
330
1F
100
AcDbEntity
  8
0
  6
PHANTOM
 62
     8
370
     0
100
AcDbLine
 10
1025.9695573354
 20
1676.4261578456
 30
0.0
 11
1022.9695661569
 21
1676.4261578456
 31
0.0
  0
LINE
  5
35D
330
1F
100
AcDbEntity
  8
0
  6
PHANTOM
 62
     8
370
     0
100
AcDbLine
 10
1398.9695383812
 20
1266.4261614219
 30
0.0
 11
1395.969577005
 21
1266.4261614219
 31
0.0
  0
LINE
  5
35E
330
1F
100
AcDbEntity
  8
0
  6
PHANTOM
 62
     8
370
     0
100
AcDbLine
 10
302.9695822502
 20
1266.4261614219
 30
0.0
 11
305.9695436264
 21
1266.4261614219
 31
0.0
  0
LINE
  5
35F
330
1F
100
AcDbEntity
  8
0
  6
PHANTOM
 62
     8
370
     0
100
AcDbLine
 10
675.9695632959
 20
1676.4261578456
 30
0.0
 11
678.9695544744
 21
1676.4261578456
 31
0.0
  0
LINE
  5
360
330
1F
100
AcDbEntity
  8
0
  6
PHANTOM
 62
     8
370
     0
100
AcDbLine
 10
1005.9695615078
 20
1656.4261620179
 30
0.0
 11
1005.9695615078
 21
1659.4261531964
 31
0.0
  0
LINE
  5
361
330
1F
100
AcDbEntity
  8
0
  6
PHANTOM
 62
     8
370
     0
100
AcDbLine
 10
695.9695591236
 20
1656.4261620179
 30
0.0
 11
695.9695591236
 21
1659.4261531964
 31
0.0
  0
LINE
  5
362
330
1F
100
AcDbEntity
  8
0
  6
PHANTOM
 62
     8
370
     0
100
AcDbLine
 10
1375.9695364738
 20
1243.4261595145
 30
0.0
 11
1375.9695364738
 21
1246.426150693
 31
0.0
  0
LINE
  5
363
330
1F
100
AcDbEntity
  8
0
  6
PHANTOM
 62
     8
370
     0
100
AcDbLine
 10
325.9695841575
 20
1243.4261595145
 30
0.0
 11
325.9695841575
 21
1246.426150693
 31
0.0
  0
ARC
  5
364
330
1F
100
AcDbEntity
  8
0
  6
PHANTOM
 62
     8
370
     0
100
AcDbCircle
 10
1405.9695603157
 20
1236.4261555806
 30
0.0
 40
20.02541546907992
100
AcDbArc
 50
270.0
 51
0.0
  0
LINE
  5
365
330
1F
100
AcDbEntity
  8
0
  6
PHANTOM
 62
     8
370
     0
100
AcDbLine
 10
1405.9695674682
 20
1219.3948631421
 30
0.0
 11
1405.9695674682
 21
1216.4007430211
 31
0.0
  0
LINE
  5
366
330
1F
100
AcDbEntity
  8
0
  6
PHANTOM
 62
     8
370
     0
100
AcDbLine
 10
295.9695531631
 20
1219.3948631421
 30
0.0
 11
295.9695531631
 21
1216.4007430211
 31
0.0
  0
ARC
  5
367
330
1F
100
AcDbEntity
  8
0
  6
PHANTOM
 62
     8
370
     0
100
AcDbCircle
 10
295.9695603157
 20
1236.4261555806
 30
0.0
 40
20.02541546907992
100
AcDbArc
 50
180.0
 51
270.0
  0
LINE
  5
368
330
1F
100
AcDbEntity
  8
0
  6
PHANTOM
 62
     8
370
     0
100
AcDbLine
 10
1405.9695674682
 20
1216.4007430211
 30
0.0
 11
295.9695531631
 21
1216.4007430211
 31
0.0
  0
LINE
  5
369
330
1F
100
AcDbEntity
  8
0
  6
PHANTOM
 62
     8
370
     0
100
AcDbLine
 10
262.9695607925
 20
1236.4261602298
 30
0.0
 11
262.9695607925
 21
1781.4261620179
 31
0.0
  0
LINE
  5
36A
330
1F
100
AcDbEntity
  8
0
  6
PHANTOM
 62
     8
370
     0
100
AcDbLine
 10
275.9441210533
 20
1236.4261602298
 30
0.0
 11
262.9695607925
 21
1236.4261602298
 31
0.0
  0
LINE
  5
36B
330
1F
100
AcDbEntity
  8
0
  6
PHANTOM
 62
     8
370
     0
100
AcDbLine
 10
1438.9695598388
 20
1781.4261620179
 30
0.0
 11
1438.9695598388
 21
1236.4261602298
 31
0.0
  0
LINE
  5
36C
330
1F
100
AcDbEntity
  8
0
  6
PHANTOM
 62
     8
370
     0
100
AcDbLine
 10
1438.9695598388
 20
1236.4261602298
 30
0.0
 11
1425.9949995781
 21
1236.4261602298
 31
0.0
  0
ARC
  5
36D
330
1F
100
AcDbEntity
  8
0
  6
PHANTOM
 62
     8
370
     0
100
AcDbCircle
 10
1405.9695603157
 20
1236.4261555806
 30
0.0
 40
33.00000000000023
100
AcDbArc
 50
270.0
 51
0.0
  0
LINE
  5
36E
330
1F
100
AcDbEntity
  8
0
  6
PHANTOM
 62
     8
370
     0
100
AcDbLine
 10
1405.9695674682
 20
1203.426152958
 30
0.0
 11
1405.9695674682
 21
1216.4007430211
 31
0.0
  0
ARC
  5
36F
330
1F
100
AcDbEntity
  8
0
  6
PHANTOM
 62
     8
370
     0
100
AcDbCircle
 10
295.9695603157
 20
1236.4261555806
 30
0.0
 40
33.00000000000023
100
AcDbArc
 50
180.0
 51
270.0
  0
LINE
  5
370
330
1F
100
AcDbEntity
  8
0
  6
PHANTOM
 62
     8
370
     0
100
AcDbLine
 10
295.9695531631
 20
1203.426152958
 30
0.0
 11
295.9695531631
 21
1216.4007430211
 31
0.0
  0
LINE
  5
371
330
1F
100
AcDbEntity
  8
0
  6
PHANTOM
 62
     8
370
     0
100
AcDbLine
 10
1405.9695674682
 20
1203.426152958
 30
0.0
 11
295.9695531631
 21
1203.426152958
 31
0.0
  0
LINE
  5
372
330
1F
100
AcDbEntity
  8
0
  6
PHANTOM
 62
     8
370
     0
100
AcDbLine
 10
655.9695674682
 20
1751.4261608258
 30
0.0
 11
655.9695674682
 21
1746.4261655942
 31
0.0
  0
LINE
  5
373
330
1F
100
AcDbEntity
  8
0
  6
PHANTOM
 62
     8
370
     0
100
AcDbLine
 10
655.9695674682
 20
1746.4261655942
 30
0.0
 11
325.9695841575
 21
1746.4261655942
 31
0.0
  0
LINE
  5
374
330
1F
100
AcDbEntity
  8
0
  6
PHANTOM
 62
     8
370
     0
100
AcDbLine
 10
325.9695841575
 20
1751.4261608258
 30
0.0
 11
325.9695841575
 21
1746.4261655942
 31
0.0
  0
ARC
  5
375
330
1F
100
AcDbEntity
  8
0
  6
PHANTOM
 62
     8
370
     0
100
AcDbCircle
 10
325.9695603157
 20
1731.4261555806
 30
0.0
 40
15.0
100
AcDbArc
 50
90.0
 51
180.0
  0
LINE
  5
376
330
1F
100
AcDbEntity
  8
0
  6
PHANTOM
 62
     8
370
     0
100
AcDbLine
 10
305.9695436264
 20
1731.426150097
 30
0.0
 11
310.969538858
 21
1731.426150097
 31
0.0
  0
ARC
  5
377
330
1F
100
AcDbEntity
  8
0
  6
PHANTOM
 62
     8
370
     0
100
AcDbCircle
 10
655.9695603157
 20
1731.4261555806
 30
0.0
 40
15.0
100
AcDbArc
 50
0.0
 51
90.0
  0
LINE
  5
378
330
1F
100
AcDbEntity
  8
0
  6
PHANTOM
 62
     8
370
     0
100
AcDbLine
 10
670.9695531631
 20
1731.426150097
 30
0.0
 11
675.9695632959
 21
1731.426150097
 31
0.0
  0
LINE
  5
379
330
1F
100
AcDbEntity
  8
0
  6
PHANTOM
 62
     8
370
     0
100
AcDbLine
 10
1375.9695364738
 20
1746.4261655942
 30
0.0
 11
1045.9695531631
 21
1746.4261655942
 31
0.0
  0
LINE
  5
37A
330
1F
100
AcDbEntity
  8
0
  6
PHANTOM
 62
     8
370
     0
100
AcDbLine
 10
1045.9695531631
 20
1746.4261655942
 30
0.0
 11
1045.9695531631
 21
1751.4261608258
 31
0.0
  0
LINE
  5
37B
330
1F
100
AcDbEntity
  8
0
  6
PHANTOM
 62
     8
370
     0
100
AcDbLine
 10
1375.9695364738
 20
1746.4261655942
 30
0.0
 11
1375.9695364738
 21
1751.4261608258
 31
0.0
  0
ARC
  5
37C
330
1F
100
AcDbEntity
  8
0
  6
PHANTOM
 62
     8
370
     0
100
AcDbCircle
 10
1045.9695603157
 20
1731.4261555806
 30
0.0
 40
15.0
100
AcDbArc
 50
90.0
 51
180.0
  0
LINE
  5
37D
330
1F
100
AcDbEntity
  8
0
  6
PHANTOM
 62
     8
370
     0
100
AcDbLine
 10
1030.9695674682
 20
1731.426150097
 30
0.0
 11
1025.9695573354
 21
1731.426150097
 31
0.0
  0
ARC
  5
37E
330
1F
100
AcDbEntity
  8
0
  6
PHANTOM
 62
     8
370
     0
100
AcDbCircle
 10
1375.9695603157
 20
1731.4261555806
 30
0.0
 40
15.0
100
AcDbArc
 50
0.0
 51
90.0
  0
LINE
  5
37F
330
1F
100
AcDbEntity
  8
0
  6
PHANTOM
 62
     8
370
     0
100
AcDbLine
 10
1395.969577005
 20
1731.426150097
 30
0.0
 11
1390.9695817733
 21
1731.426150097
 31
0.0
  0
LINE
  5
380
330
1F
100
AcDbEntity
  8
0
  6
PHANTOM
 62
     8
370
     0
100
AcDbLine
 10
1395.969577005
 20
1266.4261614219
 30
0.0
 11
1390.9695817733
 21
1266.4261614219
 31
0.0
  0
LINE
  5
381
330
1F
100
AcDbEntity
  8
0
  6
PHANTOM
 62
     8
370
     0
100
AcDbLine
 10
1390.9695817733
 20
1266.4261614219
 30
0.0
 11
1390.9695817733
 21
1731.426150097
 31
0.0
  0
LINE
  5
382
330
1F
100
AcDbEntity
  8
0
  6
PHANTOM
 62
     8
370
     0
100
AcDbLine
 10
1030.9695674682
 20
1731.426150097
 30
0.0
 11
1030.9695674682
 21
1676.4261578456
 31
0.0
  0
LINE
  5
383
330
1F
100
AcDbEntity
  8
0
  6
PHANTOM
 62
     8
370
     0
100
AcDbLine
 10
1030.9695674682
 20
1676.4261578456
 30
0.0
 11
1025.9695573354
 21
1676.4261578456
 31
0.0
  0
LINE
  5
384
330
1F
100
AcDbEntity
  8
0
  6
PHANTOM
 62
     8
370
     0
100
AcDbLine
 10
310.969538858
 20
1731.426150097
 30
0.0
 11
310.969538858
 21
1266.4261614219
 31
0.0
  0
LINE
  5
385
330
1F
100
AcDbEntity
  8
0
  6
PHANTOM
 62
     8
370
     0
100
AcDbLine
 10
305.9695436264
 20
1266.4261614219
 30
0.0
 11
310.969538858
 21
1266.4261614219
 31
0.0
  0
LINE
  5
386
330
1F
100
AcDbEntity
  8
0
  6
PHANTOM
 62
     8
370
     0
100
AcDbLine
 10
670.9695531631
 20
1676.4261578456
 30
0.0
 11
670.9695531631
 21
1731.426150097
 31
0.0
  0
LINE
  5
387
330
1F
100
AcDbEntity
  8
0
  6
PHANTOM
 62
     8
370
     0
100
AcDbLine
 10
670.9695531631
 20
1676.4261578456
 30
0.0
 11
675.9695632959
 21
1676.4261578456
 31
0.0
  0
ARC
  5
388
330
1F
100
AcDbEntity
  8
0
  6
PHANTOM
 62
     8
370
     0
100
AcDbCircle
 10
1005.9695603157
 20
1676.4261555806
 30
0.0
 40
25.00000000000023
100
AcDbArc
 50
270.0
 51
0.0
  0
LINE
  5
389
330
1F
100
AcDbEntity
  8
0
  6
PHANTOM
 62
     8
370
     0
100
AcDbLine
 10
1005.9695615078
 20
1651.4261518851
 30
0.0
 11
1005.9695615078
 21
1656.4261620179
 31
0.0
  0
ARC
  5
38A
330
1F
100
AcDbEntity
  8
0
  6
PHANTOM
 62
     8
370
     0
100
AcDbCircle
 10
695.9695603157
 20
1676.4261555806
 30
0.0
 40
25.0
100
AcDbArc
 50
180.0
 51
270.0
  0
LINE
  5
38B
330
1F
100
AcDbEntity
  8
0
  6
PHANTOM
 62
     8
370
     0
100
AcDbLine
 10
695.9695591236
 20
1651.4261518851
 30
0.0
 11
695.9695591236
 21
1656.4261620179
 31
0.0
  0
LINE
  5
38C
330
1F
100
AcDbEntity
  8
0
  6
PHANTOM
 62
     8
370
     0
100
AcDbLine
 10
1005.9695615078
 20
1651.4261518851
 30
0.0
 11
695.9695591236
 21
1651.4261518851
 31
0.0
  0
LINE
  5
38D
330
1F
100
AcDbEntity
  8
0
  6
PHANTOM
 62
     8
370
     0
100
AcDbLine
 10
1375.9695364738
 20
1246.426150693
 30
0.0
 11
1375.9695364738
 21
1251.4261608258
 31
0.0
  0
ARC
  5
38E
330
1F
100
AcDbEntity
  8
0
  6
PHANTOM
 62
     8
370
     0
100
AcDbCircle
 10
1375.9695603157
 20
1266.4261555806
 30
0.0
 40
15.00000000000023
100
AcDbArc
 50
270.0
 51
0.0
  0
ARC
  5
38F
330
1F
100
AcDbEntity
  8
0
  6
PHANTOM
 62
     8
370
     0
100
AcDbCircle
 10
325.9695603157
 20
1266.4261555806
 30
0.0
 40
15.00000000000023
100
AcDbArc
 50
180.0
 51
270.0
  0
LINE
  5
390
330
1F
100
AcDbEntity
  8
0
  6
PHANTOM
 62
     8
370
     0
100
AcDbLine
 10
325.9695841575
 20
1246.426150693
 30
0.0
 11
325.9695841575
 21
1251.4261608258
 31
0.0
  0
LINE
  5
391
330
1F
100
AcDbEntity
  8
0
  6
PHANTOM
 62
     8
370
     0
100
AcDbLine
 10
325.9695841575
 20
1251.4261608258
 30
0.0
 11
1375.9695364738
 21
1251.4261608258
 31
0.0
  0
ARC
  5
392
330
1F
100
AcDbEntity
  8
0
  6
PHANTOM
 62
     8
370
     0
100
AcDbCircle
 10
758.5468183279
 20
1451.4261555806
 30
0.0
 40
141.6828963452582
100
AcDbArc
 50
128.5460066902
 51
231.4539933098
  0
ARC
  5
393
330
1F
100
AcDbEntity
  8
0
  6
PHANTOM
 62
     8
370
     0
100
AcDbCircle
 10
850.9695603157
 20
1567.4261555806
 30
0.0
 40
290.0000000000001
100
AcDbArc
 50
231.4539933098
 51
308.5460066902
  0
ARC
  5
394
330
1F
100
AcDbEntity
  8
0
  6
PHANTOM
 62
     8
370
     0
100
AcDbCircle
 10
943.3923023034
 20
1451.4261555806
 30
0.0
 40
141.6828963452582
100
AcDbArc
 50
308.5460066902
 51
51.4539933098
  0
ARC
  5
395
330
1F
100
AcDbEntity
  8
0
  6
PHANTOM
 62
     8
370
     0
100
AcDbCircle
 10
850.9695603157
 20
1335.4261555806
 30
0.0
 40
290.0000000000004
100
AcDbArc
 50
51.4539933098
 51
128.5460066902
  0
LWPOLYLINE
  5
396
330
1F
100
AcDbEntity
  8
0
  6
PHANTOM
 62
     8
370
     0
100
AcDbPolyline
 90
       11
 70
   128
 43
0.0
 10
1031.6809787059
 20
1562.2374867335
 10
1030.2187724615
 20
1560.4022597209
 10
1028.7925525213
 20
1558.6122204796
 10
1027.4374707246
 20
1556.9114466444
 10
1026.1868758703
 20
1555.3418179289
 10
1025.0715537573
 20
1553.9419804946
 10
1024.1189821268
 20
1552.7464081779
 10
1023.3526154066
 20
1551.7845382229
 10
1022.7913184667
 20
1551.0800560251
 10
1022.4489195848
 20
1550.6503065363
 10
1022.3338379169
 20
1550.5058695808
  0
LWPOLYLINE
  5
397
330
1F
100
AcDbEntity
  8
0
  6
PHANTOM
 62
     8
370
     0
100
AcDbPolyline
 90
       11
 70
   128
 43
0.0
 10
670.2581419254
 20
1562.2374867335
 10
671.7203481699
 20
1560.4022597209
 10
673.1465681101
 20
1558.6122204796
 10
674.5016499067
 20
1556.9114466444
 10
675.7522447611
 20
1555.3418179289
 10
676.8675668741
 20
1553.9419804946
 10
677.8201385046
 20
1552.7464081779
 10
678.5865052248
 20
1551.7845382229
 10
679.1478021646
 20
1551.0800560251
 10
679.4902010465
 20
1550.6503065363
 10
679.6052827144
 20
1550.5058695808
  0
LWPOLYLINE
  5
398
330
1F
100
AcDbEntity
  8
0
  6
PHANTOM
 62
     8
370
     0
100
AcDbPolyline
 90
       11
 70
   128
 43
0.0
 10
679.6052827144
 20
1352.3464431301
 10
679.4902010465
 20
1352.2020061747
 10
679.1478021646
 20
1351.7722566858
 10
678.5865052248
 20
1351.0677744881
 10
677.8201385046
 20
1350.105904533
 10
676.8675668741
 20
1348.9103322163
 10
675.7522447611
 20
1347.5104947821
 10
674.5016499067
 20
1345.9408660665
 10
673.1465681101
 20
1344.2400996819
 10
671.7203481699
 20
1342.45005299
 10
670.2581419254
 20
1340.6148259774
  0
LWPOLYLINE
  5
399
330
1F
100
AcDbEntity
  8
0
  6
PHANTOM
 62
     8
370
     0
100
AcDbPolyline
 90
       11
 70
   128
 43
0.0
 10
1022.3338379169
 20
1352.3464431301
 10
1022.4489195848
 20
1352.2020061747
 10
1022.7913184667
 20
1351.7722566858
 10
1023.3526154066
 20
1351.0677744881
 10
1024.1189821268
 20
1350.105904533
 10
1025.0715537573
 20
1348.9103322163
 10
1026.1868758703
 20
1347.5104947821
 10
1027.4374707246
 20
1345.9408660665
 10
1028.7925525213
 20
1344.2400996819
 10
1030.2187724615
 20
1342.45005299
 10
1031.6809787059
 20
1340.6148259774
  0
LINE
  5
39A
330
1F
100
AcDbEntity
  8
0
  6
PHANTOM
 62
     8
370
     0
100
AcDbLine
 10
262.9695607925
 20
1236.4261602298
 30
0.0
 11
262.9695607925
 21
1231.426150097
 31
0.0
  0
LINE
  5
39B
330
1F
100
AcDbEntity
  8
0
  6
PHANTOM
 62
     8
370
     0
100
AcDbLine
 10
262.9695607925
 20
1231.426150097
 30
0.0
 11
250.9695364738
 21
1231.426150097
 31
0.0
  0
LINE
  5
39C
330
1F
100
AcDbEntity
  8
0
  6
PHANTOM
 62
     8
370
     0
100
AcDbLine
 10
1450.9695841575
 20
1231.426150097
 30
0.0
 11
1438.9695598388
 21
1231.426150097
 31
0.0
  0
LINE
  5
39D
330
1F
100
AcDbEntity
  8
0
  6
PHANTOM
 62
     8
370
     0
100
AcDbLine
 10
1438.9695598388
 20
1231.426150097
 30
0.0
 11
1438.9695598388
 21
1236.4261602298
 31
0.0
  0
LINE
  5
39E
330
1F
100
AcDbEntity
  8
0
  6
PHANTOM
 62
     8
370
     0
100
AcDbLine
 10
1405.9695674682
 20
1203.426152958
 30
0.0
 11
1410.9695626999
 21
1203.426152958
 31
0.0
  0
ARC
  5
39F
330
1F
100
AcDbEntity
  8
0
  6
PHANTOM
 62
     8
370
     0
100
AcDbCircle
 10
1410.9695603157
 20
1231.4261555806
 30
0.0
 40
28.0
100
AcDbArc
 50
270.0
 51
0.0
  0
LINE
  5
3A0
330
1F
100
AcDbEntity
  8
0
  6
PHANTOM
 62
     8
370
     0
100
AcDbLine
 10
290.9695579315
 20
1203.426152958
 30
0.0
 11
295.9695531631
 21
1203.426152958
 31
0.0
  0
ARC
  5
3A1
330
1F
100
AcDbEntity
  8
0
  6
PHANTOM
 62
     8
370
     0
100
AcDbCircle
 10
290.9695603157
 20
1231.4261555806
 30
0.0
 40
28.0
100
AcDbArc
 50
180.0
 51
270.0
  0
LINE
  5
3A2
330
1F
100
AcDbEntity
  8
0
  6
PHANTOM
 62
     8
370
     0
100
AcDbLine
 10
290.9695579315
 20
1191.4261584416
 30
0.0
 11
290.9695579315
 21
1203.426152958
 31
0.0
  0
LINE
  5
3A3
330
1F
100
AcDbEntity
  8
0
  6
PHANTOM
 62
     8
370
     0
100
AcDbLine
 10
1410.9695626999
 20
1191.4261584416
 30
0.0
 11
1410.9695626999
 21
1203.426152958
 31
0.0
  0
MTEXT
  5
3A5
330
1F
100
AcDbEntity
  8
0
  6
Continuous
 62
     7
370
     0
100
AcDbMText
 10
612.0566283812
 20
1892.8075286424
 30
0.0
 40
19.05
 41
0.0
 71
     1
 72
     1
  1
LB 6334 - EDWARDIAN BATHROOM CONSOLE WITH LB 7220 - UNDER-MOUNT BASIN
  7
SLDTEXTSTYLE0
 73
     1
 44
1.0
  0
ENDSEC
  0
SECTION
  2
OBJECTS
  0
DICTIONARY
  5
C
330
0
100
AcDbDictionary
281
     1
  3
ACAD_GROUP
350
D
  3
ACAD_LAYOUT
350
1A
  3
ACAD_MLINESTYLE
350
17
  3
ACAD_PLOTSETTINGS
350
19
  3
ACAD_PLOTSTYLENAME
350
E
  3
ACAD_SCALELIST
350
47
  0
DICTIONARY
  5
D
102
{ACAD_REACTORS
330
C
102
}
330
C
100
AcDbDictionary
281
     1
  0
DICTIONARY
  5
1A
102
{ACAD_REACTORS
330
C
102
}
330
C
100
AcDbDictionary
281
     1
  3
Layout1
350
1E
  3
Layout2
350
26
  3
Model
350
22
  0
DICTIONARY
  5
17
102
{ACAD_REACTORS
330
C
102
}
330
C
100
AcDbDictionary
281
     1
  3
Standard
350
18
  0
DICTIONARY
  5
19
102
{ACAD_REACTORS
330
C
102
}
330
C
100
AcDbDictionary
281
     1
  0
ACDBDICTIONARYWDFLT
  5
E
102
{ACAD_REACTORS
330
C
102
}
330
C
100
AcDbDictionary
281
     1
  3
Normal
350
F
100
AcDbDictionaryWithDefault
340
F
  0
DICTIONARY
  5
47
102
{ACAD_REACTORS
330
C
102
}
330
C
100
AcDbDictionary
281
     1
  3
A0
350
48
  3
A1
350
49
  3
A2
350
4A
  3
A3
350
4B
  3
A4
350
4C
  3
A5
350
4D
  3
A6
350
4E
  3
A7
350
4F
  3
A8
350
50
  3
A9
350
51
  3
B0
350
52
  3
B1
350
53
  3
B2
350
54
  3
B3
350
55
  3
B4
350
56
  3
B5
350
57
  3
B6
350
58
  3
B7
350
59
  3
B8
350
5A
  3
B9
350
5B
  3
C0
350
5C
  3
C1
350
5D
  3
C2
350
5E
  3
C3
350
5F
  3
C4
350
60
  3
C5
350
61
  3
C6
350
62
  3
C7
350
63
  3
C8
350
64
  3
C9
350
65
  3
D0
350
66
  3
D1
350
67
  3
D2
350
68
  0
LAYOUT
  5
1E
102
{ACAD_REACTORS
330
1A
102
}
330
1A
100
AcDbPlotSettings
  1

  2
none_device
  4

  6

 40
0.0
 41
0.0
 42
0.0
 43
0.0
 44
0.0
 45
0.0
 46
0.0
 47
0.0
 48
0.0
 49
0.0
140
0.0
141
0.0
142
1.0
143
1.0
 70
   688
 72
     1
 73
     0
 74
     5
  7

 75
    16
147
1.0
148
0.0
149
0.0
100
AcDbLayout
  1
Layout1
 70
     1
 71
     1
 10
0.0
 20
0.0
 11
420.0
 21
297.0
 12
0.0
 22
0.0
 32
0.0
 14
1.0000000000E+20
 24
1.0000000000E+20
 34
1.0000000000E+20
 15
-1.0000000000E+20
 25
-1.0000000000E+20
 35
-1.0000000000E+20
146
0.0
 13
0.0
 23
0.0
 33
0.0
 16
1.0
 26
0.0
 36
0.0
 17
0.0
 27
1.0
 37
0.0
 76
     0
330
1B
  0
LAYOUT
  5
26
102
{ACAD_REACTORS
330
1A
102
}
330
1A
100
AcDbPlotSettings
  1

  2
none_device
  4

  6

 40
0.0
 41
0.0
 42
0.0
 43
0.0
 44
0.0
 45
0.0
 46
0.0
 47
0.0
 48
0.0
 49
0.0
140
0.0
141
0.0
142
1.0
143
1.0
 70
   688
 72
     1
 73
     0
 74
     5
  7

 75
    16
147
1.0
148
0.0
149
0.0
100
AcDbLayout
  1
Layout2
 70
     1
 71
     2
 10
0.0
 20
0.0
 11
0.0
 21
0.0
 12
0.0
 22
0.0
 32
0.0
 14
0.0
 24
0.0
 34
0.0
 15
0.0
 25
0.0
 35
0.0
146
0.0
 13
0.0
 23
0.0
 33
0.0
 16
1.0
 26
0.0
 36
0.0
 17
0.0
 27
1.0
 37
0.0
 76
     0
330
23
  0
LAYOUT
  5
22
102
{ACAD_REACTORS
330
1A
102
}
330
1A
100
AcDbPlotSettings
  1

  2
none_device
  4
Letter_(8.50_x_11.00_Inches)
  6

 40
6.35
 41
6.35
 42
6.35000508
 43
6.35000508
 44
215.9
 45
279.4
 46
0.0
 47
0.0
 48
0.0
 49
0.0
140
0.0
141
0.0
142
1.0
143
1.0
 70
  1712
 72
     1
 73
     0
 74
     0
  7

 75
     0
147
1.0
148
0.0
149
0.0
100
AcDbLayout
  1
Model
 70
     1
 71
     0
 10
0.0
 20
0.0
 11
2500.0
 21
2000.0
 12
0.0
 22
0.0
 32
0.0
 14
0.0
 24
0.0
 34
0.0
 15
2500.0
 25
2000.0
 35
0.0
146
0.0
 13
0.0
 23
0.0
 33
0.0
 16
1.0
 26
0.0
 36
0.0
 17
0.0
 27
1.0
 37
0.0
 76
     0
330
1F
331
29
  0
MLINESTYLE
  5
18
102
{ACAD_REACTORS
330
17
102
}
330
17
100
AcDbMlineStyle
  2
Standard
 70
     0
  3

 62
   256
 51
90.0
 52
90.0
 71
     2
 49
0.5
 62
   256
  6
BYLAYER
 49
-0.5
 62
   256
  6
BYLAYER
  0
ACDBPLACEHOLDER
  5
F
102
{ACAD_REACTORS
330
E
102
}
330
E
  0
SCALE
  5
48
102
{ACAD_REACTORS
330
47
102
}
330
47
100
AcDbScale
 70
     0
300
1:1
140
1.0
141
1.0
290
     1
  0
SCALE
  5
49
102
{ACAD_REACTORS
330
47
102
}
330
47
100
AcDbScale
 70
     0
300
1:2
140
1.0
141
2.0
290
     0
  0
SCALE
  5
4A
102
{ACAD_REACTORS
330
47
102
}
330
47
100
AcDbScale
 70
     0
300
1:4
140
1.0
141
4.0
290
     0
  0
SCALE
  5
4B
102
{ACAD_REACTORS
330
47
102
}
330
47
100
AcDbScale
 70
     0
300
1:5
140
1.0
141
5.0
290
     0
  0
SCALE
  5
4C
102
{ACAD_REACTORS
330
47
102
}
330
47
100
AcDbScale
 70
     0
300
1:8
140
1.0
141
8.0
290
     0
  0
SCALE
  5
4D
102
{ACAD_REACTORS
330
47
102
}
330
47
100
AcDbScale
 70
     0
300
1:10
140
1.0
141
10.0
290
     0
  0
SCALE
  5
4E
102
{ACAD_REACTORS
330
47
102
}
330
47
100
AcDbScale
 70
     0
300
1:16
140
1.0
141
16.0
290
     0
  0
SCALE
  5
4F
102
{ACAD_REACTORS
330
47
102
}
330
47
100
AcDbScale
 70
     0
300
1:20
140
1.0
141
20.0
290
     0
  0
SCALE
  5
50
102
{ACAD_REACTORS
330
47
102
}
330
47
100
AcDbScale
 70
     0
300
1:30
140
1.0
141
30.0
290
     0
  0
SCALE
  5
51
102
{ACAD_REACTORS
330
47
102
}
330
47
100
AcDbScale
 70
     0
300
1:40
140
1.0
141
40.0
290
     0
  0
SCALE
  5
52
102
{ACAD_REACTORS
330
47
102
}
330
47
100
AcDbScale
 70
     0
300
1:50
140
1.0
141
50.0
290
     0
  0
SCALE
  5
53
102
{ACAD_REACTORS
330
47
102
}
330
47
100
AcDbScale
 70
     0
300
1:100
140
1.0
141
100.0
290
     0
  0
SCALE
  5
54
102
{ACAD_REACTORS
330
47
102
}
330
47
100
AcDbScale
 70
     0
300
2:1
140
2.0
141
1.0
290
     0
  0
SCALE
  5
55
102
{ACAD_REACTORS
330
47
102
}
330
47
100
AcDbScale
 70
     0
300
4:1
140
4.0
141
1.0
290
     0
  0
SCALE
  5
56
102
{ACAD_REACTORS
330
47
102
}
330
47
100
AcDbScale
 70
     0
300
8:1
140
8.0
141
1.0
290
     0
  0
SCALE
  5
57
102
{ACAD_REACTORS
330
47
102
}
330
47
100
AcDbScale
 70
     0
300
10:1
140
10.0
141
1.0
290
     0
  0
SCALE
  5
58
102
{ACAD_REACTORS
330
47
102
}
330
47
100
AcDbScale
 70
     0
300
100:1
140
100.0
141
1.0
290
     0
  0
SCALE
  5
59
102
{ACAD_REACTORS
330
47
102
}
330
47
100
AcDbScale
 70
     0
300
1/128" = 1'-0"
140
0.0078125
141
12.0
290
     0
  0
SCALE
  5
5A
102
{ACAD_REACTORS
330
47
102
}
330
47
100
AcDbScale
 70
     0
300
1/64" = 1'-0"
140
0.015625
141
12.0
290
     0
  0
SCALE
  5
5B
102
{ACAD_REACTORS
330
47
102
}
330
47
100
AcDbScale
 70
     0
300
1/32" = 1'-0"
140
0.03125
141
12.0
290
     0
  0
SCALE
  5
5C
102
{ACAD_REACTORS
330
47
102
}
330
47
100
AcDbScale
 70
     0
300
1/16" = 1'-0"
140
0.0625
141
12.0
290
     0
  0
SCALE
  5
5D
102
{ACAD_REACTORS
330
47
102
}
330
47
100
AcDbScale
 70
     0
300
3/32" = 1'-0"
140
0.09375
141
12.0
290
     0
  0
SCALE
  5
5E
102
{ACAD_REACTORS
330
47
102
}
330
47
100
AcDbScale
 70
     0
300
1/8" = 1'-0"
140
0.125
141
12.0
290
     0
  0
SCALE
  5
5F
102
{ACAD_REACTORS
330
47
102
}
330
47
100
AcDbScale
 70
     0
300
3/16" = 1'-0"
140
0.1875
141
12.0
290
     0
  0
SCALE
  5
60
102
{ACAD_REACTORS
330
47
102
}
330
47
100
AcDbScale
 70
     0
300
1/4" = 1'-0"
140
0.25
141
12.0
290
     0
  0
SCALE
  5
61
102
{ACAD_REACTORS
330
47
102
}
330
47
100
AcDbScale
 70
     0
300
3/8" = 1'-0"
140
0.375
141
12.0
290
     0
  0
SCALE
  5
62
102
{ACAD_REACTORS
330
47
102
}
330
47
100
AcDbScale
 70
     0
300
1/2" = 1'-0"
140
0.5
141
12.0
290
     0
  0
SCALE
  5
63
102
{ACAD_REACTORS
330
47
102
}
330
47
100
AcDbScale
 70
     0
300
3/4" = 1'-0"
140
0.75
141
12.0
290
     0
  0
SCALE
  5
64
102
{ACAD_REACTORS
330
47
102
}
330
47
100
AcDbScale
 70
     0
300
1" = 1'-0"
140
1.0
141
12.0
290
     0
  0
SCALE
  5
65
102
{ACAD_REACTORS
330
47
102
}
330
47
100
AcDbScale
 70
     0
300
1-1/2" = 1'-0"
140
1.5
141
12.0
290
     0
  0
SCALE
  5
66
102
{ACAD_REACTORS
330
47
102
}
330
47
100
AcDbScale
 70
     0
300
3" = 1'-0"
140
3.0
141
12.0
290
     0
  0
SCALE
  5
67
102
{ACAD_REACTORS
330
47
102
}
330
47
100
AcDbScale
 70
     0
300
6" = 1'-0"
140
6.0
141
12.0
290
     0
  0
SCALE
  5
68
102
{ACAD_REACTORS
330
47
102
}
330
47
100
AcDbScale
 70
     0
300
1'-0" = 1'-0"
140
12.0
141
12.0
290
     0
  0
ENDSEC
  0
EOF
